  0
SECTION
  2
HEADER
  9
$ACADVER
  1
AC1018
  9
$ACADMAINTVER
 70
     0
  9
$DWGCODEPAGE
  3
ANSI_1252
  9
$INSBASE
 10
0.0
 20
0.0
 30
0.0
  9
$EXTMIN
 10
1.000000000000000E+20
 20
1.000000000000000E+20
 30
1.000000000000000E+20
  9
$EXTMAX
 10
-1.000000000000000E+20
 20
-1.000000000000000E+20
 30
-1.000000000000000E+20
  9
$LIMMIN
 10
0.0
 20
0.0
  9
$LIMMAX
 10
12.0
 20
9.0
  9
$ORTHOMODE
 70
     0
  9
$REGENMODE
 70
     1
  9
$FILLMODE
 70
     1
  9
$QTEXTMODE
 70
     0
  9
$MIRRTEXT
 70
     1
  9
$LTSCALE
 40
1.0
  9
$ATTMODE
 70
     1
  9
$TEXTSIZE
 40
0.2
  9
$TRACEWID
 40
0.05
  9
$TEXTSTYLE
  7
Standard
  9
$CLAYER
  8
0
  9
$CELTYPE
  6
ByLayer
  9
$CECOLOR
 62
   256
  9
$CELTSCALE
 40
1.0
  9
$DISPSILH
 70
     0
  9
$DIMSCALE
 40
1.0
  9
$DIMASZ
 40
0.18
  9
$DIMEXO
 40
0.0625
  9
$DIMDLI
 40
0.38
  9
$DIMRND
 40
0.0
  9
$DIMDLE
 40
0.0
  9
$DIMEXE
 40
0.18
  9
$DIMTP
 40
0.0
  9
$DIMTM
 40
0.0
  9
$DIMTXT
 40
0.18
  9
$DIMCEN
 40
0.09
  9
$DIMTSZ
 40
0.0
  9
$DIMTOL
 70
     0
  9
$DIMLIM
 70
     0
  9
$DIMTIH
 70
     1
  9
$DIMTOH
 70
     1
  9
$DIMSE1
 70
     0
  9
$DIMSE2
 70
     0
  9
$DIMTAD
 70
     0
  9
$DIMZIN
 70
     0
  9
$DIMBLK
  1

  9
$DIMASO
 70
     1
  9
$DIMSHO
 70
     1
  9
$DIMPOST
  1

  9
$DIMAPOST
  1

  9
$DIMALT
 70
     0
  9
$DIMALTD
 70
     2
  9
$DIMALTF
 40
25.4
  9
$DIMLFAC
 40
1.0
  9
$DIMTOFL
 70
     0
  9
$DIMTVP
 40
0.0
  9
$DIMTIX
 70
     0
  9
$DIMSOXD
 70
     0
  9
$DIMSAH
 70
     0
  9
$DIMBLK1
  1

  9
$DIMBLK2
  1

  9
$DIMSTYLE
  2
Standard
  9
$DIMCLRD
 70
     0
  9
$DIMCLRE
 70
     0
  9
$DIMCLRT
 70
     0
  9
$DIMTFAC
 40
1.0
  9
$DIMGAP
 40
0.09
  9
$DIMJUST
 70
     0
  9
$DIMSD1
 70
     0
  9
$DIMSD2
 70
     0
  9
$DIMTOLJ
 70
     1
  9
$DIMTZIN
 70
     0
  9
$DIMALTZ
 70
     0
  9
$DIMALTTZ
 70
     0
  9
$DIMUPT
 70
     0
  9
$DIMDEC
 70
     4
  9
$DIMTDEC
 70
     4
  9
$DIMALTU
 70
     2
  9
$DIMALTTD
 70
     2
  9
$DIMTXSTY
  7
Standard
  9
$DIMAUNIT
 70
     0
  9
$DIMADEC
 70
     0
  9
$DIMALTRND
 40
0.0
  9
$DIMAZIN
 70
     0
  9
$DIMDSEP
 70
    46
  9
$DIMATFIT
 70
     3
  9
$DIMFRAC
 70
     0
  9
$DIMLDRBLK
  1

  9
$DIMLUNIT
 70
     2
  9
$DIMLWD
 70
    -2
  9
$DIMLWE
 70
    -2
  9
$DIMTMOVE
 70
     0
  9
$LUNITS
 70
     2
  9
$LUPREC
 70
     4
  9
$SKETCHINC
 40
0.1
  9
$FILLETRAD
 40
0.5
  9
$AUNITS
 70
     0
  9
$AUPREC
 70
     0
  9
$MENU
  1
.
  9
$ELEVATION
 40
0.0
  9
$PELEVATION
 40
0.0
  9
$THICKNESS
 40
0.0
  9
$LIMCHECK
 70
     0
  9
$CHAMFERA
 40
0.5
  9
$CHAMFERB
 40
0.5
  9
$CHAMFERC
 40
1.0
  9
$CHAMFERD
 40
0.0
  9
$SKPOLY
 70
     0
  9
$TDCREATE
 40
2457929.832973067
  9
$TDUCREATE
 40
2457929.999639734
  9
$TDUPDATE
 40
2457929.832973079
  9
$TDUUPDATE
 40
2457929.999639745
  9
$TDINDWG
 40
0.0000000116
  9
$TDUSRTIMER
 40
0.0000000116
  9
$USRTIMER
 70
     1
  9
$ANGBASE
 50
0.0
  9
$ANGDIR
 70
     0
  9
$PDMODE
 70
     0
  9
$PDSIZE
 40
0.0
  9
$PLINEWID
 40
0.0
  9
$SPLFRAME
 70
     0
  9
$SPLINETYPE
 70
     6
  9
$SPLINESEGS
 70
     8
  9
$HANDSEED
  5
A2
  9
$SURFTAB1
 70
     6
  9
$SURFTAB2
 70
     6
  9
$SURFTYPE
 70
     6
  9
$SURFU
 70
     6
  9
$SURFV
 70
     6
  9
$UCSBASE
  2

  9
$UCSNAME
  2

  9
$UCSORG
 10
0.0
 20
0.0
 30
0.0
  9
$UCSXDIR
 10
1.0
 20
0.0
 30
0.0
  9
$UCSYDIR
 10
0.0
 20
1.0
 30
0.0
  9
$UCSORTHOREF
  2

  9
$UCSORTHOVIEW
 70
     0
  9
$UCSORGTOP
 10
0.0
 20
0.0
 30
0.0
  9
$UCSORGBOTTOM
 10
0.0
 20
0.0
 30
0.0
  9
$UCSORGLEFT
 10
0.0
 20
0.0
 30
0.0
  9
$UCSORGRIGHT
 10
0.0
 20
0.0
 30
0.0
  9
$UCSORGFRONT
 10
0.0
 20
0.0
 30
0.0
  9
$UCSORGBACK
 10
0.0
 20
0.0
 30
0.0
  9
$PUCSBASE
  2

  9
$PUCSNAME
  2

  9
$PUCSORG
 10
0.0
 20
0.0
 30
0.0
  9
$PUCSXDIR
 10
1.0
 20
0.0
 30
0.0
  9
$PUCSYDIR
 10
0.0
 20
1.0
 30
0.0
  9
$PUCSORTHOREF
  2

  9
$PUCSORTHOVIEW
 70
     0
  9
$PUCSORGTOP
 10
0.0
 20
0.0
 30
0.0
  9
$PUCSORGBOTTOM
 10
0.0
 20
0.0
 30
0.0
  9
$PUCSORGLEFT
 10
0.0
 20
0.0
 30
0.0
  9
$PUCSORGRIGHT
 10
0.0
 20
0.0
 30
0.0
  9
$PUCSORGFRONT
 10
0.0
 20
0.0
 30
0.0
  9
$PUCSORGBACK
 10
0.0
 20
0.0
 30
0.0
  9
$USERI1
 70
     0
  9
$USERI2
 70
     0
  9
$USERI3
 70
     0
  9
$USERI4
 70
     0
  9
$USERI5
 70
     0
  9
$USERR1
 40
0.0
  9
$USERR2
 40
0.0
  9
$USERR3
 40
0.0
  9
$USERR4
 40
0.0
  9
$USERR5
 40
0.0
  9
$WORLDVIEW
 70
     1
  9
$SHADEDGE
 70
     3
  9
$SHADEDIF
 70
    70
  9
$TILEMODE
 70
     1
  9
$MAXACTVP
 70
    64
  9
$PINSBASE
 10
0.0
 20
0.0
 30
0.0
  9
$PLIMCHECK
 70
     0
  9
$PEXTMIN
 10
1.000000000000000E+20
 20
1.000000000000000E+20
 30
1.000000000000000E+20
  9
$PEXTMAX
 10
-1.000000000000000E+20
 20
-1.000000000000000E+20
 30
-1.000000000000000E+20
  9
$PLIMMIN
 10
0.0
 20
0.0
  9
$PLIMMAX
 10
12.0
 20
9.0
  9
$UNITMODE
 70
     0
  9
$VISRETAIN
 70
     1
  9
$PLINEGEN
 70
     0
  9
$PSLTSCALE
 70
     1
  9
$TREEDEPTH
 70
  3020
  9
$CMLSTYLE
  2
Standard
  9
$CMLJUST
 70
     0
  9
$CMLSCALE
 40
1.0
  9
$PROXYGRAPHICS
 70
     1
  9
$MEASUREMENT
 70
     0
  9
$CELWEIGHT
370
    -1
  9
$ENDCAPS
280
     0
  9
$JOINSTYLE
280
     0
  9
$LWDISPLAY
290
     1
  9
$INSUNITS
 70
     1
  9
$HYPERLINKBASE
  1

  9
$STYLESHEET
  1

  9
$XEDIT
290
     1
  9
$CEPSNTYPE
380
     0
  9
$PSTYLEMODE
290
     1
  9
$FINGERPRINTGUID
  2
{3592A10C-3A39-4891-ABBE-C65EF14EC08D}
  9
$VERSIONGUID
  2
{FAEB1C32-E019-11D5-929B-00C0DF256EC4}
  9
$EXTNAMES
290
     1
  9
$PSVPSCALE
 40
0.0
  9
$OLESTARTUP
290
     0
  9
$SORTENTS
280
   127
  9
$INDEXCTL
280
     0
  9
$HIDETEXT
280
     1
  9
$XCLIPFRAME
290
     0
  9
$HALOGAP
280
     0
  9
$OBSCOLOR
 70
   257
  9
$OBSLTYPE
280
     0
  9
$INTERSECTIONDISPLAY
280
     0
  9
$INTERSECTIONCOLOR
 70
   257
  9
$DIMASSOC
280
     2
  9
$PROJECTNAME
  1

  0
ENDSEC
  0
SECTION
  2
CLASSES
  0
CLASS
  1
ACDBDICTIONARYWDFLT
  2
AcDbDictionaryWithDefault
  3
ObjectDBX Classes
 90
        0
 91
        3
280
     0
281
     0
  0
CLASS
  1
VISUALSTYLE
  2
AcDbVisualStyle
  3
ObjectDBX Classes
 90
     4095
 91
        3
280
     0
281
     0
  0
ENDSEC
  0
SECTION
  2
TABLES
  0
TABLE
  2
VPORT
  5
8
330
0
100
AcDbSymbolTable
 70
     1
  0
VPORT
  5
29
330
8
100
AcDbSymbolTableRecord
100
AcDbViewportTableRecord
  2
*Active
 70
     0
 10
0.0
 20
0.0
 11
1.0
 21
1.0
 12
0.0
 22
0.0
 13
0.0
 23
0.0
 14
0.5
 24
0.5
 15
0.5
 25
0.5
 16
0.0
 26
0.0
 36
1.0
 17
4.25
 27
5.5
 37
0.0
 40
11.0
 41
0.7727272727272727
 42
50.0
 43
0.0
 44
0.0
 50
0.0
 51
0.0
 71
     0
 72
   100
 73
     1
 74
     3
 75
     0
 76
     0
 77
     0
 78
     0
281
     0
 65
     1
110
0.0
120
0.0
130
0.0
111
1.0
121
0.0
131
0.0
112
0.0
122
1.0
132
0.0
 79
     0
146
0.0
  0
ENDTAB
  0
TABLE
  2
LTYPE
  5
5
330
0
100
AcDbSymbolTable
 70
     1
  0
LTYPE
  5
14
330
5
100
AcDbSymbolTableRecord
100
AcDbLinetypeTableRecord
  2
ByBlock
 70
     0
  3

 72
    65
 73
     0
 40
0.0
  0
LTYPE
  5
15
330
5
100
AcDbSymbolTableRecord
100
AcDbLinetypeTableRecord
  2
ByLayer
 70
     0
  3

 72
    65
 73
     0
 40
0.0
  0
LTYPE
  5
16
330
5
100
AcDbSymbolTableRecord
100
AcDbLinetypeTableRecord
  2
Continuous
 70
     0
  3
Solid line
 72
    65
 73
     0
 40
0.0
  0
ENDTAB
  0
TABLE
  2
LAYER
  5
2
330
0
100
AcDbSymbolTable
 70
     4
  0
LAYER
  5
10
330
2
100
AcDbSymbolTableRecord
100
AcDbLayerTableRecord
  2
0
 70
     0
 62
     7
  6
Continuous
370
    -3
390
F
  0
LAYER
  5
3B
330
2
100
AcDbSymbolTableRecord
100
AcDbLayerTableRecord
  2
Bottom Board
 70
     0
 62
     7
  6
Continuous
370
    -3
390
F
  0
LAYER
  5
48
330
2
100
AcDbSymbolTableRecord
100
AcDbLayerTableRecord
  2
Top Board
 70
     0
 62
     7
  6
Continuous
370
    -3
390
F
  0
LAYER
  5
6E
330
2
100
AcDbSymbolTableRecord
100
AcDbLayerTableRecord
  2
Drill
 70
     0
 62
     7
  6
Continuous
370
    -3
390
F
  0
ENDTAB
  0
TABLE
  2
STYLE
  5
3
330
0
100
AcDbSymbolTable
 70
     1
  0
STYLE
  5
11
330
3
100
AcDbSymbolTableRecord
100
AcDbTextStyleTableRecord
  2
Standard
 70
     0
 40
0.0
 41
1.0
 50
0.0
 71
     0
 42
0.2
  3
txt
  4

  0
ENDTAB
  0
TABLE
  2
VIEW
  5
6
330
0
100
AcDbSymbolTable
 70
     0
  0
ENDTAB
  0
TABLE
  2
UCS
  5
7
330
0
100
AcDbSymbolTable
 70
     0
  0
ENDTAB
  0
TABLE
  2
APPID
  5
9
330
0
100
AcDbSymbolTable
 70
     1
  0
APPID
  5
12
330
9
100
AcDbSymbolTableRecord
100
AcDbRegAppTableRecord
  2
ACAD
 70
     0
  0
ENDTAB
  0
TABLE
  2
DIMSTYLE
  5
A
330
0
100
AcDbSymbolTable
 70
     1
100
AcDbDimStyleTable
  0
DIMSTYLE
105
27
330
A
100
AcDbSymbolTableRecord
100
AcDbDimStyleTableRecord
  2
Standard
 70
     0
340
11
  0
ENDTAB
  0
TABLE
  2
BLOCK_RECORD
  5
1
330
0
100
AcDbSymbolTable
 70
     1
  0
BLOCK_RECORD
  5
1F
330
1
100
AcDbSymbolTableRecord
100
AcDbBlockTableRecord
  2
*Model_Space
340
22
  0
BLOCK_RECORD
  5
1B
330
1
100
AcDbSymbolTableRecord
100
AcDbBlockTableRecord
  2
*Paper_Space
340
1E
  0
BLOCK_RECORD
  5
23
330
1
100
AcDbSymbolTableRecord
100
AcDbBlockTableRecord
  2
*Paper_Space0
340
26
  0
ENDTAB
  0
ENDSEC
  0
SECTION
  2
BLOCKS
  0
BLOCK
  5
20
330
1F
100
AcDbEntity
  8
0
100
AcDbBlockBegin
  2
*Model_Space
 70
     0
 71
     0
 10
0.0
 20
0.0
 30
0.0
  3
*Model_Space
  1

  0
ENDBLK
  5
21
330
1F
100
AcDbEntity
  8
0
100
AcDbBlockEnd
  0
BLOCK
  5
1C
330
1B
100
AcDbEntity
 67
     1
  8
0
100
AcDbBlockBegin
  2
*Paper_Space
 70
     0
 71
     0
 10
0.0
 20
0.0
 30
0.0
  3
*Paper_Space
  1

  0
ENDBLK
  5
1D
330
1B
100
AcDbEntity
 67
     1
  8
0
100
AcDbBlockEnd
  0
BLOCK
  5
24
330
23
100
AcDbEntity
  8
0
100
AcDbBlockBegin
  2
*Paper_Space0
 70
     0
 71
     0
 10
0.0
 20
0.0
 30
0.0
  3
*Paper_Space0
  1

  0
ENDBLK
  5
25
330
23
100
AcDbEntity
  8
0
100
AcDbBlockEnd
  0
ENDSEC
  0
SECTION
  2
ENTITIES
  0
SPLINE
  5
3C
330
1F
100
AcDbEntity
  8
Bottom Board
370
     0
100
AcDbSpline
210
0.0
220
0.0
230
1.0
 70
    11
 71
     3
 72
    50
 73
    46
 74
     0
 42
0.0000000001
 43
0.0000000001
 40
0.0
 40
0.0
 40
0.0
 40
0.0
 40
1.0
 40
1.0
 40
1.0
 40
2.0
 40
2.0
 40
2.0
 40
3.0
 40
3.0
 40
3.0
 40
4.0
 40
4.0
 40
4.0
 40
5.0
 40
5.0
 40
5.0
 40
6.0
 40
6.0
 40
6.0
 40
7.0
 40
7.0
 40
7.0
 40
8.0
 40
8.0
 40
8.0
 40
9.0
 40
9.0
 40
9.0
 40
10.0
 40
10.0
 40
10.0
 40
11.0
 40
11.0
 40
11.0
 40
12.0
 40
12.0
 40
12.0
 40
13.0
 40
13.0
 40
13.0
 40
14.0
 40
14.0
 40
14.0
 40
15.0
 40
15.0
 40
15.0
 40
15.0
 10
0.2687174479166666
 20
10.46212429470486
 30
0.0
 10
0.2687174479166666
 20
10.46212429470486
 30
0.0
 10
0.29150390625
 20
10.46212429470486
 30
0.0
 10
0.29150390625
 20
10.46212429470486
 30
0.0
 10
0.29150390625
 20
10.46212429470486
 30
0.0
 10
0.33251953125
 20
10.48489718967014
 30
0.0
 10
0.33251953125
 20
10.48489718967014
 30
0.0
 10
0.3321126302083333
 20
10.48685031467014
 30
0.0
 10
0.3318820529513889
 20
10.48888481987847
 30
0.0
 10
0.3318820529513889
 20
10.49096001519097
 30
0.0
 10
0.3318820529513889
 20
10.50726318359375
 30
0.0
 10
0.3451334635416666
 20
10.52054172092014
 30
0.0
 10
0.3613823784722222
 20
10.52054172092014
 30
0.0
 10
0.3777262369791666
 20
10.52054172092014
 30
0.0
 10
0.3909369574652777
 20
10.50726318359375
 30
0.0
 10
0.3909369574652777
 20
10.49096001519097
 30
0.0
 10
0.3909369574652777
 20
10.47464328342014
 30
0.0
 10
0.3777262369791666
 20
10.46147325303819
 30
0.0
 10
0.3613823784722222
 20
10.46147325303819
 30
0.0
 10
0.3534613715277777
 20
10.46147325303819
 30
0.0
 10
0.3462999131944444
 20
10.46463351779514
 30
0.0
 10
0.3409830729166666
 20
10.46973334418403
 30
0.0
 10
0.3409830729166666
 20
10.46973334418403
 30
0.0
 10
0.2979736328125
 20
10.44584825303819
 30
0.0
 10
0.2979736328125
 20
10.44584825303819
 30
0.0
 10
0.2966851128472222
 20
10.44514295789931
 30
0.0
 10
0.2952338324652777
 20
10.44476318359375
 30
0.0
 10
0.2937554253472222
 20
10.44476318359375
 30
0.0
 10
0.2937554253472222
 20
10.44476318359375
 30
0.0
 10
0.2687174479166666
 20
10.44476318359375
 30
0.0
 10
0.2687174479166666
 20
10.44476318359375
 30
0.0
 10
0.2687174479166666
 20
10.44476318359375
 30
0.0
 10
0.2687174479166666
 20
10.42624918619792
 30
0.0
 10
0.2687174479166666
 20
10.42624918619792
 30
0.0
 10
0.2687174479166666
 20
10.42624918619792
 30
0.0
 10
0.2339952256944444
 20
10.42624918619792
 30
0.0
 10
0.2339952256944444
 20
10.42624918619792
 30
0.0
 10
0.2339952256944444
 20
10.42624918619792
 30
0.0
 10
0.2339952256944444
 20
10.48065185546875
 30
0.0
 10
0.2339952256944444
 20
10.48065185546875
 30
0.0
 10
0.2339952256944444
 20
10.48065185546875
 30
0.0
 10
0.2687174479166666
 20
10.48065185546875
 30
0.0
 10
0.2687174479166666
 20
10.48065185546875
 30
0.0
 10
0.2687174479166666
 20
10.48065185546875
 30
0.0
 10
0.2687174479166666
 20
10.46212429470486
 30
0.0
 10
0.2687174479166666
 20
10.46212429470486
 30
0.0
  0
HATCH
  5
3D
330
1F
100
AcDbEntity
  8
Bottom Board
 62
   102
100
AcDbHatch
 10
0.0
 20
0.0
 30
0.0
210
0.0
220
0.0
230
1.0
  2
SOLID
 70
     1
 71
     0
 91
        1
 92
        1
 93
        1
 72
     4
 94
        3
 73
     0
 74
     1
 95
       50
 96
       46
 40
0.0
 40
0.0
 40
0.0
 40
0.0
 40
1.0
 40
1.0
 40
1.0
 40
2.0
 40
2.0
 40
2.0
 40
3.0
 40
3.0
 40
3.0
 40
4.0
 40
4.0
 40
4.0
 40
5.0
 40
5.0
 40
5.0
 40
6.0
 40
6.0
 40
6.0
 40
7.0
 40
7.0
 40
7.0
 40
8.0
 40
8.0
 40
8.0
 40
9.0
 40
9.0
 40
9.0
 40
10.0
 40
10.0
 40
10.0
 40
11.0
 40
11.0
 40
11.0
 40
12.0
 40
12.0
 40
12.0
 40
13.0
 40
13.0
 40
13.0
 40
14.0
 40
14.0
 40
14.0
 40
15.0
 40
15.0
 40
15.0
 40
15.0
 10
0.2687174479166666
 20
10.46212429470486
 10
0.2687174479166666
 20
10.46212429470486
 10
0.29150390625
 20
10.46212429470486
 10
0.29150390625
 20
10.46212429470486
 10
0.29150390625
 20
10.46212429470486
 10
0.33251953125
 20
10.48489718967014
 10
0.33251953125
 20
10.48489718967014
 10
0.3321126302083333
 20
10.48685031467014
 10
0.3318820529513889
 20
10.48888481987847
 10
0.3318820529513889
 20
10.49096001519097
 10
0.3318820529513889
 20
10.50726318359375
 10
0.3451334635416666
 20
10.52054172092014
 10
0.3613823784722222
 20
10.52054172092014
 10
0.3777262369791666
 20
10.52054172092014
 10
0.3909369574652777
 20
10.50726318359375
 10
0.3909369574652777
 20
10.49096001519097
 10
0.3909369574652777
 20
10.47464328342014
 10
0.3777262369791666
 20
10.46147325303819
 10
0.3613823784722222
 20
10.46147325303819
 10
0.3534613715277777
 20
10.46147325303819
 10
0.3462999131944444
 20
10.46463351779514
 10
0.3409830729166666
 20
10.46973334418403
 10
0.3409830729166666
 20
10.46973334418403
 10
0.2979736328125
 20
10.44584825303819
 10
0.2979736328125
 20
10.44584825303819
 10
0.2966851128472222
 20
10.44514295789931
 10
0.2952338324652777
 20
10.44476318359375
 10
0.2937554253472222
 20
10.44476318359375
 10
0.2937554253472222
 20
10.44476318359375
 10
0.2687174479166666
 20
10.44476318359375
 10
0.2687174479166666
 20
10.44476318359375
 10
0.2687174479166666
 20
10.44476318359375
 10
0.2687174479166666
 20
10.42624918619792
 10
0.2687174479166666
 20
10.42624918619792
 10
0.2687174479166666
 20
10.42624918619792
 10
0.2339952256944444
 20
10.42624918619792
 10
0.2339952256944444
 20
10.42624918619792
 10
0.2339952256944444
 20
10.42624918619792
 10
0.2339952256944444
 20
10.48065185546875
 10
0.2339952256944444
 20
10.48065185546875
 10
0.2339952256944444
 20
10.48065185546875
 10
0.2687174479166666
 20
10.48065185546875
 10
0.2687174479166666
 20
10.48065185546875
 10
0.2687174479166666
 20
10.48065185546875
 10
0.2687174479166666
 20
10.46212429470486
 10
0.2687174479166666
 20
10.46212429470486
 97
        0
 75
     2
 76
     1
 98
        0
  0
SPLINE
  5
3E
330
1F
100
AcDbEntity
  8
Bottom Board
370
     0
100
AcDbSpline
210
0.0
220
0.0
230
1.0
 70
    11
 71
     3
 72
    50
 73
    46
 74
     0
 42
0.0000000001
 43
0.0000000001
 40
0.0
 40
0.0
 40
0.0
 40
0.0
 40
1.0
 40
1.0
 40
1.0
 40
2.0
 40
2.0
 40
2.0
 40
3.0
 40
3.0
 40
3.0
 40
4.0
 40
4.0
 40
4.0
 40
5.0
 40
5.0
 40
5.0
 40
6.0
 40
6.0
 40
6.0
 40
7.0
 40
7.0
 40
7.0
 40
8.0
 40
8.0
 40
8.0
 40
9.0
 40
9.0
 40
9.0
 40
10.0
 40
10.0
 40
10.0
 40
11.0
 40
11.0
 40
11.0
 40
12.0
 40
12.0
 40
12.0
 40
13.0
 40
13.0
 40
13.0
 40
14.0
 40
14.0
 40
14.0
 40
15.0
 40
15.0
 40
15.0
 40
15.0
 10
0.2982584635416666
 20
10.84259033203125
 30
0.0
 10
0.2969021267361111
 20
10.84176974826389
 30
0.0
 10
0.2953423394097222
 20
10.84133572048611
 30
0.0
 10
0.2937554253472222
 20
10.84133572048611
 30
0.0
 10
0.2937554253472222
 20
10.84133572048611
 30
0.0
 10
0.2494439019097222
 20
10.84133572048611
 30
0.0
 10
0.2494439019097222
 20
10.84133572048611
 30
0.0
 10
0.2446560329861111
 20
10.84133572048611
 30
0.0
 10
0.2407633463541667
 20
10.84522162543403
 30
0.0
 10
0.2407633463541667
 20
10.85001627604167
 30
0.0
 10
0.2407633463541667
 20
10.85001627604167
 30
0.0
 10
0.2407633463541667
 20
10.86621771918403
 30
0.0
 10
0.2407633463541667
 20
10.86621771918403
 30
0.0
 10
0.2407633463541667
 20
10.87101236979167
 30
0.0
 10
0.2446560329861111
 20
10.87489827473958
 30
0.0
 10
0.2494439019097222
 20
10.87489827473958
 30
0.0
 10
0.2542317708333333
 20
10.87489827473958
 30
0.0
 10
0.2581244574652778
 20
10.87101236979167
 30
0.0
 10
0.2581244574652778
 20
10.86621771918403
 30
0.0
 10
0.2581244574652778
 20
10.86621771918403
 30
0.0
 10
0.2581244574652778
 20
10.85869683159722
 30
0.0
 10
0.2581244574652778
 20
10.85869683159722
 30
0.0
 10
0.2581244574652778
 20
10.85869683159722
 30
0.0
 10
0.2913275824652777
 20
10.85869683159722
 30
0.0
 10
0.2913275824652777
 20
10.85869683159722
 30
0.0
 10
0.2913275824652777
 20
10.85869683159722
 30
0.0
 10
0.3328450520833333
 20
10.88385687934028
 30
0.0
 10
0.3328450520833333
 20
10.88385687934028
 30
0.0
 10
0.332275390625
 20
10.88614230685764
 30
0.0
 10
0.3318820529513889
 20
10.88850233289931
 30
0.0
 10
0.3318820529513889
 20
10.89097086588542
 30
0.0
 10
0.3318820529513889
 20
10.90727403428819
 30
0.0
 10
0.3451334635416666
 20
10.92054578993056
 30
0.0
 10
0.3613823784722222
 20
10.92054578993056
 30
0.0
 10
0.3777262369791666
 20
10.92054578993056
 30
0.0
 10
0.3909369574652777
 20
10.90727403428819
 30
0.0
 10
0.3909369574652777
 20
10.89097086588542
 30
0.0
 10
0.3909369574652777
 20
10.87465413411458
 30
0.0
 10
0.3777262369791666
 20
10.86148410373264
 30
0.0
 10
0.3613823784722222
 20
10.86148410373264
 30
0.0
 10
0.3538682725694444
 20
10.86148410373264
 30
0.0
 10
0.3470865885416666
 20
10.8643798828125
 30
0.0
 10
0.3418646918402777
 20
10.86901177300347
 30
0.0
 10
0.3418646918402777
 20
10.86901177300347
 30
0.0
 10
0.2982584635416666
 20
10.84259033203125
 30
0.0
 10
0.2982584635416666
 20
10.84259033203125
 30
0.0
  0
HATCH
  5
3F
330
1F
100
AcDbEntity
  8
Bottom Board
 62
   102
100
AcDbHatch
 10
0.0
 20
0.0
 30
0.0
210
0.0
220
0.0
230
1.0
  2
SOLID
 70
     1
 71
     0
 91
        1
 92
        1
 93
        1
 72
     4
 94
        3
 73
     0
 74
     1
 95
       50
 96
       46
 40
0.0
 40
0.0
 40
0.0
 40
0.0
 40
1.0
 40
1.0
 40
1.0
 40
2.0
 40
2.0
 40
2.0
 40
3.0
 40
3.0
 40
3.0
 40
4.0
 40
4.0
 40
4.0
 40
5.0
 40
5.0
 40
5.0
 40
6.0
 40
6.0
 40
6.0
 40
7.0
 40
7.0
 40
7.0
 40
8.0
 40
8.0
 40
8.0
 40
9.0
 40
9.0
 40
9.0
 40
10.0
 40
10.0
 40
10.0
 40
11.0
 40
11.0
 40
11.0
 40
12.0
 40
12.0
 40
12.0
 40
13.0
 40
13.0
 40
13.0
 40
14.0
 40
14.0
 40
14.0
 40
15.0
 40
15.0
 40
15.0
 40
15.0
 10
0.2982584635416666
 20
10.84259033203125
 10
0.2969021267361111
 20
10.84176974826389
 10
0.2953423394097222
 20
10.84133572048611
 10
0.2937554253472222
 20
10.84133572048611
 10
0.2937554253472222
 20
10.84133572048611
 10
0.2494439019097222
 20
10.84133572048611
 10
0.2494439019097222
 20
10.84133572048611
 10
0.2446560329861111
 20
10.84133572048611
 10
0.2407633463541667
 20
10.84522162543403
 10
0.2407633463541667
 20
10.85001627604167
 10
0.2407633463541667
 20
10.85001627604167
 10
0.2407633463541667
 20
10.86621771918403
 10
0.2407633463541667
 20
10.86621771918403
 10
0.2407633463541667
 20
10.87101236979167
 10
0.2446560329861111
 20
10.87489827473958
 10
0.2494439019097222
 20
10.87489827473958
 10
0.2542317708333333
 20
10.87489827473958
 10
0.2581244574652778
 20
10.87101236979167
 10
0.2581244574652778
 20
10.86621771918403
 10
0.2581244574652778
 20
10.86621771918403
 10
0.2581244574652778
 20
10.85869683159722
 10
0.2581244574652778
 20
10.85869683159722
 10
0.2581244574652778
 20
10.85869683159722
 10
0.2913275824652777
 20
10.85869683159722
 10
0.2913275824652777
 20
10.85869683159722
 10
0.2913275824652777
 20
10.85869683159722
 10
0.3328450520833333
 20
10.88385687934028
 10
0.3328450520833333
 20
10.88385687934028
 10
0.332275390625
 20
10.88614230685764
 10
0.3318820529513889
 20
10.88850233289931
 10
0.3318820529513889
 20
10.89097086588542
 10
0.3318820529513889
 20
10.90727403428819
 10
0.3451334635416666
 20
10.92054578993056
 10
0.3613823784722222
 20
10.92054578993056
 10
0.3777262369791666
 20
10.92054578993056
 10
0.3909369574652777
 20
10.90727403428819
 10
0.3909369574652777
 20
10.89097086588542
 10
0.3909369574652777
 20
10.87465413411458
 10
0.3777262369791666
 20
10.86148410373264
 10
0.3613823784722222
 20
10.86148410373264
 10
0.3538682725694444
 20
10.86148410373264
 10
0.3470865885416666
 20
10.8643798828125
 10
0.3418646918402777
 20
10.86901177300347
 10
0.3418646918402777
 20
10.86901177300347
 10
0.2982584635416666
 20
10.84259033203125
 10
0.2982584635416666
 20
10.84259033203125
 97
        0
 75
     2
 76
     1
 98
        0
  0
SPLINE
  5
40
330
1F
100
AcDbEntity
  8
Bottom Board
370
     0
100
AcDbSpline
210
0.0
220
0.0
230
1.0
 70
    11
 71
     3
 72
   125
 73
   121
 74
     0
 42
0.0000000001
 43
0.0000000001
 40
0.0
 40
0.0
 40
0.0
 40
0.0
 40
1.0
 40
1.0
 40
1.0
 40
2.0
 40
2.0
 40
2.0
 40
3.0
 40
3.0
 40
3.0
 40
4.0
 40
4.0
 40
4.0
 40
5.0
 40
5.0
 40
5.0
 40
6.0
 40
6.0
 40
6.0
 40
7.0
 40
7.0
 40
7.0
 40
8.0
 40
8.0
 40
8.0
 40
9.0
 40
9.0
 40
9.0
 40
10.0
 40
10.0
 40
10.0
 40
11.0
 40
11.0
 40
11.0
 40
12.0
 40
12.0
 40
12.0
 40
13.0
 40
13.0
 40
13.0
 40
14.0
 40
14.0
 40
14.0
 40
15.0
 40
15.0
 40
15.0
 40
16.0
 40
16.0
 40
16.0
 40
17.0
 40
17.0
 40
17.0
 40
18.0
 40
18.0
 40
18.0
 40
19.0
 40
19.0
 40
19.0
 40
20.0
 40
20.0
 40
20.0
 40
21.0
 40
21.0
 40
21.0
 40
22.0
 40
22.0
 40
22.0
 40
23.0
 40
23.0
 40
23.0
 40
24.0
 40
24.0
 40
24.0
 40
25.0
 40
25.0
 40
25.0
 40
26.0
 40
26.0
 40
26.0
 40
27.0
 40
27.0
 40
27.0
 40
28.0
 40
28.0
 40
28.0
 40
29.0
 40
29.0
 40
29.0
 40
30.0
 40
30.0
 40
30.0
 40
31.0
 40
31.0
 40
31.0
 40
32.0
 40
32.0
 40
32.0
 40
33.0
 40
33.0
 40
33.0
 40
34.0
 40
34.0
 40
34.0
 40
35.0
 40
35.0
 40
35.0
 40
36.0
 40
36.0
 40
36.0
 40
37.0
 40
37.0
 40
37.0
 40
38.0
 40
38.0
 40
38.0
 40
39.0
 40
39.0
 40
39.0
 40
40.0
 40
40.0
 40
40.0
 40
40.0
 10
0.1685791015625
 20
10.48834228515625
 30
0.0
 10
0.1685791015625
 20
10.48834228515625
 30
0.0
 10
0.2340494791666667
 20
10.52275254991319
 30
0.0
 10
0.2340494791666667
 20
10.52275254991319
 30
0.0
 10
0.2340494791666667
 20
10.52275254991319
 30
0.0
 10
0.2340494791666667
 20
10.57581244574653
 30
0.0
 10
0.2340494791666667
 20
10.57581244574653
 30
0.0
 10
0.2340494791666667
 20
10.57581244574653
 30
0.0
 10
0.1949055989583333
 20
10.59633382161458
 30
0.0
 10
0.1949055989583333
 20
10.59633382161458
 30
0.0
 10
0.1949055989583333
 20
10.59633382161458
 30
0.0
 10
0.1553548177083333
 20
10.59633382161458
 30
0.0
 10
0.1553548177083333
 20
10.59633382161458
 30
0.0
 10
0.1505669487847222
 20
10.59633382161458
 30
0.0
 10
0.1466742621527778
 20
10.60022650824653
 30
0.0
 10
0.1466742621527778
 20
10.60501437717014
 30
0.0
 10
0.1466742621527778
 20
10.60501437717014
 30
0.0
 10
0.1466742621527778
 20
10.71829562717014
 30
0.0
 10
0.1466742621527778
 20
10.71829562717014
 30
0.0
 10
0.1466742621527778
 20
10.72309027777778
 30
0.0
 10
0.1505669487847222
 20
10.72697618272569
 30
0.0
 10
0.1553548177083333
 20
10.72697618272569
 30
0.0
 10
0.1553548177083333
 20
10.72697618272569
 30
0.0
 10
0.1937120225694444
 20
10.72697618272569
 30
0.0
 10
0.1937120225694444
 20
10.72697618272569
 30
0.0
 10
0.1984998914930556
 20
10.72697618272569
 30
0.0
 10
0.202392578125
 20
10.72309027777778
 30
0.0
 10
0.202392578125
 20
10.71829562717014
 30
0.0
 10
0.202392578125
 20
10.71829562717014
 30
0.0
 10
0.202392578125
 20
10.70692952473958
 30
0.0
 10
0.202392578125
 20
10.70692952473958
 30
0.0
 10
0.202392578125
 20
10.70213487413194
 30
0.0
 10
0.1984998914930556
 20
10.69824896918403
 30
0.0
 10
0.1937120225694444
 20
10.69824896918403
 30
0.0
 10
0.1889241536458333
 20
10.69824896918403
 30
0.0
 10
0.1850314670138889
 20
10.70213487413194
 30
0.0
 10
0.1850314670138889
 20
10.70692952473958
 30
0.0
 10
0.1850314670138889
 20
10.70692952473958
 30
0.0
 10
0.1850314670138889
 20
10.70961507161458
 30
0.0
 10
0.1850314670138889
 20
10.70961507161458
 30
0.0
 10
0.1850314670138889
 20
10.70961507161458
 30
0.0
 10
0.1640353732638889
 20
10.70961507161458
 30
0.0
 10
0.1640353732638889
 20
10.70961507161458
 30
0.0
 10
0.1640353732638889
 20
10.70961507161458
 30
0.0
 10
0.1640353732638889
 20
10.61369493272569
 30
0.0
 10
0.1640353732638889
 20
10.61369493272569
 30
0.0
 10
0.1640353732638889
 20
10.61369493272569
 30
0.0
 10
0.1970486111111111
 20
10.61369493272569
 30
0.0
 10
0.1970486111111111
 20
10.61369493272569
 30
0.0
 10
0.1984592013888889
 20
10.61369493272569
 30
0.0
 10
0.1998291015625
 20
10.61335584852431
 30
0.0
 10
0.2010769314236111
 20
10.61270480685764
 30
0.0
 10
0.2010769314236111
 20
10.61270480685764
 30
0.0
 10
0.2554389105902778
 20
10.58420817057292
 30
0.0
 10
0.2554389105902778
 20
10.58420817057292
 30
0.0
 10
0.25830078125
 20
10.58270263671875
 30
0.0
 10
0.2600911458333333
 20
10.57974582248264
 30
0.0
 10
0.2600911458333333
 20
10.57651774088542
 30
0.0
 10
0.2600911458333333
 20
10.57651774088542
 30
0.0
 10
0.2687717013888889
 20
10.57651774088542
 30
0.0
 10
0.2687717013888889
 20
10.57651774088542
 30
0.0
 10
0.2687717013888889
 20
10.57651774088542
 30
0.0
 10
0.2687717013888889
 20
10.55799018012153
 30
0.0
 10
0.2687717013888889
 20
10.55799018012153
 30
0.0
 10
0.2687717013888889
 20
10.55799018012153
 30
0.0
 10
0.2913004557291666
 20
10.55799018012153
 30
0.0
 10
0.2913004557291666
 20
10.55799018012153
 30
0.0
 10
0.2913004557291666
 20
10.55799018012153
 30
0.0
 10
0.3329128689236111
 20
10.58363850911458
 30
0.0
 10
0.3329128689236111
 20
10.58363850911458
 30
0.0
 10
0.3323025173611111
 20
10.58599853515625
 30
0.0
 10
0.3318820529513889
 20
10.58841281467014
 30
0.0
 10
0.3318820529513889
 20
10.59096272786458
 30
0.0
 10
0.3318820529513889
 20
10.60726589626736
 30
0.0
 10
0.3451334635416666
 20
10.62053087022569
 30
0.0
 10
0.3613823784722222
 20
10.62053087022569
 30
0.0
 10
0.3777262369791666
 20
10.62053087022569
 30
0.0
 10
0.3909369574652777
 20
10.60726589626736
 30
0.0
 10
0.3909369574652777
 20
10.59096272786458
 30
0.0
 10
0.3909369574652777
 20
10.57464599609375
 30
0.0
 10
0.3777262369791666
 20
10.56147596571181
 30
0.0
 10
0.3613823784722222
 20
10.56147596571181
 30
0.0
 10
0.3539496527777777
 20
10.56147596571181
 30
0.0
 10
0.3472357855902777
 20
10.56432427300347
 30
0.0
 10
0.342041015625
 20
10.56886800130208
 30
0.0
 10
0.342041015625
 20
10.56886800130208
 30
0.0
 10
0.2983127170138889
 20
10.54191758897569
 30
0.0
 10
0.2983127170138889
 20
10.54191758897569
 30
0.0
 10
0.2969428168402777
 20
10.54107666015625
 30
0.0
 10
0.2953694661458333
 20
10.54062906901042
 30
0.0
 10
0.2937554253472222
 20
10.54062906901042
 30
0.0
 10
0.2937554253472222
 20
10.54062906901042
 30
0.0
 10
0.2687717013888889
 20
10.54062906901042
 30
0.0
 10
0.2687717013888889
 20
10.54062906901042
 30
0.0
 10
0.2687717013888889
 20
10.54062906901042
 30
0.0
 10
0.2687717013888889
 20
10.52211507161458
 30
0.0
 10
0.2687717013888889
 20
10.52211507161458
 30
0.0
 10
0.2687717013888889
 20
10.52211507161458
 30
0.0
 10
0.2601860894097222
 20
10.52211507161458
 30
0.0
 10
0.2601860894097222
 20
10.52211507161458
 30
0.0
 10
0.2601860894097222
 20
10.51888699001736
 30
0.0
 10
0.2584092881944444
 20
10.51593017578125
 30
0.0
 10
0.2555609809027778
 20
10.51442464192708
 30
0.0
 10
0.2555609809027778
 20
10.51442464192708
 30
0.0
 10
0.1899820963541667
 20
10.47996012369792
 30
0.0
 10
0.1899820963541667
 20
10.47996012369792
 30
0.0
 10
0.1899820963541667
 20
10.47996012369792
 30
0.0
 10
0.1899820963541667
 20
10.42624918619792
 30
0.0
 10
0.1899820963541667
 20
10.42624918619792
 30
0.0
 10
0.1899820963541667
 20
10.42624918619792
 30
0.0
 10
0.1552598741319444
 20
10.42624918619792
 30
0.0
 10
0.1552598741319444
 20
10.42624918619792
 30
0.0
 10
0.1552598741319444
 20
10.42624918619792
 30
0.0
 10
0.1552598741319444
 20
10.48065185546875
 30
0.0
 10
0.1552598741319444
 20
10.48065185546875
 30
0.0
 10
0.1552598741319444
 20
10.48065185546875
 30
0.0
 10
0.1639404296875
 20
10.48065185546875
 30
0.0
 10
0.1639404296875
 20
10.48065185546875
 30
0.0
 10
0.1639404296875
 20
10.48387993706597
 30
0.0
 10
0.1657307942708333
 20
10.48683675130208
 30
0.0
 10
0.1685791015625
 20
10.48834228515625
 30
0.0
  0
HATCH
  5
41
330
1F
100
AcDbEntity
  8
Bottom Board
 62
   102
100
AcDbHatch
 10
0.0
 20
0.0
 30
0.0
210
0.0
220
0.0
230
1.0
  2
SOLID
 70
     1
 71
     0
 91
        1
 92
        1
 93
        1
 72
     4
 94
        3
 73
     0
 74
     1
 95
      125
 96
      121
 40
0.0
 40
0.0
 40
0.0
 40
0.0
 40
1.0
 40
1.0
 40
1.0
 40
2.0
 40
2.0
 40
2.0
 40
3.0
 40
3.0
 40
3.0
 40
4.0
 40
4.0
 40
4.0
 40
5.0
 40
5.0
 40
5.0
 40
6.0
 40
6.0
 40
6.0
 40
7.0
 40
7.0
 40
7.0
 40
8.0
 40
8.0
 40
8.0
 40
9.0
 40
9.0
 40
9.0
 40
10.0
 40
10.0
 40
10.0
 40
11.0
 40
11.0
 40
11.0
 40
12.0
 40
12.0
 40
12.0
 40
13.0
 40
13.0
 40
13.0
 40
14.0
 40
14.0
 40
14.0
 40
15.0
 40
15.0
 40
15.0
 40
16.0
 40
16.0
 40
16.0
 40
17.0
 40
17.0
 40
17.0
 40
18.0
 40
18.0
 40
18.0
 40
19.0
 40
19.0
 40
19.0
 40
20.0
 40
20.0
 40
20.0
 40
21.0
 40
21.0
 40
21.0
 40
22.0
 40
22.0
 40
22.0
 40
23.0
 40
23.0
 40
23.0
 40
24.0
 40
24.0
 40
24.0
 40
25.0
 40
25.0
 40
25.0
 40
26.0
 40
26.0
 40
26.0
 40
27.0
 40
27.0
 40
27.0
 40
28.0
 40
28.0
 40
28.0
 40
29.0
 40
29.0
 40
29.0
 40
30.0
 40
30.0
 40
30.0
 40
31.0
 40
31.0
 40
31.0
 40
32.0
 40
32.0
 40
32.0
 40
33.0
 40
33.0
 40
33.0
 40
34.0
 40
34.0
 40
34.0
 40
35.0
 40
35.0
 40
35.0
 40
36.0
 40
36.0
 40
36.0
 40
37.0
 40
37.0
 40
37.0
 40
38.0
 40
38.0
 40
38.0
 40
39.0
 40
39.0
 40
39.0
 40
40.0
 40
40.0
 40
40.0
 40
40.0
 10
0.1685791015625
 20
10.48834228515625
 10
0.1685791015625
 20
10.48834228515625
 10
0.2340494791666667
 20
10.52275254991319
 10
0.2340494791666667
 20
10.52275254991319
 10
0.2340494791666667
 20
10.52275254991319
 10
0.2340494791666667
 20
10.57581244574653
 10
0.2340494791666667
 20
10.57581244574653
 10
0.2340494791666667
 20
10.57581244574653
 10
0.1949055989583333
 20
10.59633382161458
 10
0.1949055989583333
 20
10.59633382161458
 10
0.1949055989583333
 20
10.59633382161458
 10
0.1553548177083333
 20
10.59633382161458
 10
0.1553548177083333
 20
10.59633382161458
 10
0.1505669487847222
 20
10.59633382161458
 10
0.1466742621527778
 20
10.60022650824653
 10
0.1466742621527778
 20
10.60501437717014
 10
0.1466742621527778
 20
10.60501437717014
 10
0.1466742621527778
 20
10.71829562717014
 10
0.1466742621527778
 20
10.71829562717014
 10
0.1466742621527778
 20
10.72309027777778
 10
0.1505669487847222
 20
10.72697618272569
 10
0.1553548177083333
 20
10.72697618272569
 10
0.1553548177083333
 20
10.72697618272569
 10
0.1937120225694444
 20
10.72697618272569
 10
0.1937120225694444
 20
10.72697618272569
 10
0.1984998914930556
 20
10.72697618272569
 10
0.202392578125
 20
10.72309027777778
 10
0.202392578125
 20
10.71829562717014
 10
0.202392578125
 20
10.71829562717014
 10
0.202392578125
 20
10.70692952473958
 10
0.202392578125
 20
10.70692952473958
 10
0.202392578125
 20
10.70213487413194
 10
0.1984998914930556
 20
10.69824896918403
 10
0.1937120225694444
 20
10.69824896918403
 10
0.1889241536458333
 20
10.69824896918403
 10
0.1850314670138889
 20
10.70213487413194
 10
0.1850314670138889
 20
10.70692952473958
 10
0.1850314670138889
 20
10.70692952473958
 10
0.1850314670138889
 20
10.70961507161458
 10
0.1850314670138889
 20
10.70961507161458
 10
0.1850314670138889
 20
10.70961507161458
 10
0.1640353732638889
 20
10.70961507161458
 10
0.1640353732638889
 20
10.70961507161458
 10
0.1640353732638889
 20
10.70961507161458
 10
0.1640353732638889
 20
10.61369493272569
 10
0.1640353732638889
 20
10.61369493272569
 10
0.1640353732638889
 20
10.61369493272569
 10
0.1970486111111111
 20
10.61369493272569
 10
0.1970486111111111
 20
10.61369493272569
 10
0.1984592013888889
 20
10.61369493272569
 10
0.1998291015625
 20
10.61335584852431
 10
0.2010769314236111
 20
10.61270480685764
 10
0.2010769314236111
 20
10.61270480685764
 10
0.2554389105902778
 20
10.58420817057292
 10
0.2554389105902778
 20
10.58420817057292
 10
0.25830078125
 20
10.58270263671875
 10
0.2600911458333333
 20
10.57974582248264
 10
0.2600911458333333
 20
10.57651774088542
 10
0.2600911458333333
 20
10.57651774088542
 10
0.2687717013888889
 20
10.57651774088542
 10
0.2687717013888889
 20
10.57651774088542
 10
0.2687717013888889
 20
10.57651774088542
 10
0.2687717013888889
 20
10.55799018012153
 10
0.2687717013888889
 20
10.55799018012153
 10
0.2687717013888889
 20
10.55799018012153
 10
0.2913004557291666
 20
10.55799018012153
 10
0.2913004557291666
 20
10.55799018012153
 10
0.2913004557291666
 20
10.55799018012153
 10
0.3329128689236111
 20
10.58363850911458
 10
0.3329128689236111
 20
10.58363850911458
 10
0.3323025173611111
 20
10.58599853515625
 10
0.3318820529513889
 20
10.58841281467014
 10
0.3318820529513889
 20
10.59096272786458
 10
0.3318820529513889
 20
10.60726589626736
 10
0.3451334635416666
 20
10.62053087022569
 10
0.3613823784722222
 20
10.62053087022569
 10
0.3777262369791666
 20
10.62053087022569
 10
0.3909369574652777
 20
10.60726589626736
 10
0.3909369574652777
 20
10.59096272786458
 10
0.3909369574652777
 20
10.57464599609375
 10
0.3777262369791666
 20
10.56147596571181
 10
0.3613823784722222
 20
10.56147596571181
 10
0.3539496527777777
 20
10.56147596571181
 10
0.3472357855902777
 20
10.56432427300347
 10
0.342041015625
 20
10.56886800130208
 10
0.342041015625
 20
10.56886800130208
 10
0.2983127170138889
 20
10.54191758897569
 10
0.2983127170138889
 20
10.54191758897569
 10
0.2969428168402777
 20
10.54107666015625
 10
0.2953694661458333
 20
10.54062906901042
 10
0.2937554253472222
 20
10.54062906901042
 10
0.2937554253472222
 20
10.54062906901042
 10
0.2687717013888889
 20
10.54062906901042
 10
0.2687717013888889
 20
10.54062906901042
 10
0.2687717013888889
 20
10.54062906901042
 10
0.2687717013888889
 20
10.52211507161458
 10
0.2687717013888889
 20
10.52211507161458
 10
0.2687717013888889
 20
10.52211507161458
 10
0.2601860894097222
 20
10.52211507161458
 10
0.2601860894097222
 20
10.52211507161458
 10
0.2601860894097222
 20
10.51888699001736
 10
0.2584092881944444
 20
10.51593017578125
 10
0.2555609809027778
 20
10.51442464192708
 10
0.2555609809027778
 20
10.51442464192708
 10
0.1899820963541667
 20
10.47996012369792
 10
0.1899820963541667
 20
10.47996012369792
 10
0.1899820963541667
 20
10.47996012369792
 10
0.1899820963541667
 20
10.42624918619792
 10
0.1899820963541667
 20
10.42624918619792
 10
0.1899820963541667
 20
10.42624918619792
 10
0.1552598741319444
 20
10.42624918619792
 10
0.1552598741319444
 20
10.42624918619792
 10
0.1552598741319444
 20
10.42624918619792
 10
0.1552598741319444
 20
10.48065185546875
 10
0.1552598741319444
 20
10.48065185546875
 10
0.1552598741319444
 20
10.48065185546875
 10
0.1639404296875
 20
10.48065185546875
 10
0.1639404296875
 20
10.48065185546875
 10
0.1639404296875
 20
10.48387993706597
 10
0.1657307942708333
 20
10.48683675130208
 10
0.1685791015625
 20
10.48834228515625
 97
        0
 75
     2
 76
     1
 98
        0
  0
SPLINE
  5
42
330
1F
100
AcDbEntity
  8
Bottom Board
370
     0
100
AcDbSpline
210
0.0
220
0.0
230
1.0
 70
    11
 71
     3
 72
    98
 73
    94
 74
     0
 42
0.0000000001
 43
0.0000000001
 40
0.0
 40
0.0
 40
0.0
 40
0.0
 40
1.0
 40
1.0
 40
1.0
 40
2.0
 40
2.0
 40
2.0
 40
3.0
 40
3.0
 40
3.0
 40
4.0
 40
4.0
 40
4.0
 40
5.0
 40
5.0
 40
5.0
 40
6.0
 40
6.0
 40
6.0
 40
7.0
 40
7.0
 40
7.0
 40
8.0
 40
8.0
 40
8.0
 40
9.0
 40
9.0
 40
9.0
 40
10.0
 40
10.0
 40
10.0
 40
11.0
 40
11.0
 40
11.0
 40
12.0
 40
12.0
 40
12.0
 40
13.0
 40
13.0
 40
13.0
 40
14.0
 40
14.0
 40
14.0
 40
15.0
 40
15.0
 40
15.0
 40
16.0
 40
16.0
 40
16.0
 40
17.0
 40
17.0
 40
17.0
 40
18.0
 40
18.0
 40
18.0
 40
19.0
 40
19.0
 40
19.0
 40
20.0
 40
20.0
 40
20.0
 40
21.0
 40
21.0
 40
21.0
 40
22.0
 40
22.0
 40
22.0
 40
23.0
 40
23.0
 40
23.0
 40
24.0
 40
24.0
 40
24.0
 40
25.0
 40
25.0
 40
25.0
 40
26.0
 40
26.0
 40
26.0
 40
27.0
 40
27.0
 40
27.0
 40
28.0
 40
28.0
 40
28.0
 40
29.0
 40
29.0
 40
29.0
 40
30.0
 40
30.0
 40
30.0
 40
31.0
 40
31.0
 40
31.0
 40
31.0
 10
0.2033555772569444
 20
10.82644314236111
 30
0.0
 10
0.2033555772569444
 20
10.82644314236111
 30
0.0
 10
0.2033555772569444
 20
10.94955105251736
 30
0.0
 10
0.2033555772569444
 20
10.94955105251736
 30
0.0
 10
0.2033555772569444
 20
10.954345703125
 30
0.0
 10
0.2072482638888889
 20
10.95823160807292
 30
0.0
 10
0.2120361328125
 20
10.95823160807292
 30
0.0
 10
0.2168240017361111
 20
10.95823160807292
 30
0.0
 10
0.2207166883680556
 20
10.954345703125
 30
0.0
 10
0.2207166883680556
 20
10.94955105251736
 30
0.0
 10
0.2207166883680556
 20
10.94955105251736
 30
0.0
 10
0.2207166883680556
 20
10.83145480685764
 30
0.0
 10
0.2207166883680556
 20
10.83145480685764
 30
0.0
 10
0.2207166883680556
 20
10.83145480685764
 30
0.0
 10
0.2557508680555555
 20
10.81125217013889
 30
0.0
 10
0.2557508680555555
 20
10.81125217013889
 30
0.0
 10
0.2584364149305555
 20
10.80969916449653
 30
0.0
 10
0.2600911458333333
 20
10.80683051215278
 30
0.0
 10
0.2600911458333333
 20
10.80373128255208
 30
0.0
 10
0.2600911458333333
 20
10.80373128255208
 30
0.0
 10
0.2687717013888889
 20
10.80373128255208
 30
0.0
 10
0.2687717013888889
 20
10.80373128255208
 30
0.0
 10
0.2687717013888889
 20
10.80373128255208
 30
0.0
 10
0.2687717013888889
 20
10.78520372178819
 30
0.0
 10
0.2687717013888889
 20
10.78520372178819
 30
0.0
 10
0.2687717013888889
 20
10.78520372178819
 30
0.0
 10
0.2928331163194444
 20
10.78520372178819
 30
0.0
 10
0.2928331163194444
 20
10.78520372178819
 30
0.0
 10
0.2928331163194444
 20
10.78520372178819
 30
0.0
 10
0.3321533203125
 20
10.79362657335069
 30
0.0
 10
0.3321533203125
 20
10.79362657335069
 30
0.0
 10
0.3335096571180555
 20
10.80866834852431
 30
0.0
 10
0.3460422092013889
 20
10.82054307725694
 30
0.0
 10
0.3613823784722222
 20
10.82054307725694
 30
0.0
 10
0.3777262369791666
 20
10.82054307725694
 30
0.0
 10
0.3909369574652777
 20
10.80727132161458
 30
0.0
 10
0.3909369574652777
 20
10.79096815321181
 30
0.0
 10
0.3909369574652777
 20
10.77465142144097
 30
0.0
 10
0.3777262369791666
 20
10.76148139105903
 30
0.0
 10
0.3613823784722222
 20
10.76148139105903
 30
0.0
 10
0.350341796875
 20
10.76148139105903
 30
0.0
 10
0.3408067491319444
 20
10.76762559678819
 30
0.0
 10
0.3357476128472222
 20
10.77663845486111
 30
0.0
 10
0.3357476128472222
 20
10.77663845486111
 30
0.0
 10
0.2955729166666666
 20
10.76803249782986
 30
0.0
 10
0.2955729166666666
 20
10.76803249782986
 30
0.0
 10
0.2949761284722222
 20
10.76791042751736
 30
0.0
 10
0.2943657769097222
 20
10.76784261067708
 30
0.0
 10
0.2937554253472222
 20
10.76784261067708
 30
0.0
 10
0.2937554253472222
 20
10.76784261067708
 30
0.0
 10
0.2687717013888889
 20
10.76784261067708
 30
0.0
 10
0.2687717013888889
 20
10.76784261067708
 30
0.0
 10
0.2687717013888889
 20
10.76784261067708
 30
0.0
 10
0.2687717013888889
 20
10.74931504991319
 30
0.0
 10
0.2687717013888889
 20
10.74931504991319
 30
0.0
 10
0.2687717013888889
 20
10.74931504991319
 30
0.0
 10
0.2600911458333333
 20
10.74931504991319
 30
0.0
 10
0.2600911458333333
 20
10.74931504991319
 30
0.0
 10
0.2600911458333333
 20
10.74871826171875
 30
0.0
 10
0.2600233289930555
 20
10.74812147352431
 30
0.0
 10
0.2599012586805555
 20
10.74753146701389
 30
0.0
 10
0.2599012586805555
 20
10.74753146701389
 30
0.0
 10
0.2535807291666666
 20
10.71739366319444
 30
0.0
 10
0.2535807291666666
 20
10.71739366319444
 30
0.0
 10
0.2535807291666666
 20
10.71739366319444
 30
0.0
 10
0.2535807291666666
 20
10.70692952473958
 30
0.0
 10
0.2535807291666666
 20
10.70692952473958
 30
0.0
 10
0.2535807291666666
 20
10.70213487413194
 30
0.0
 10
0.2496880425347222
 20
10.69824896918403
 30
0.0
 10
0.2449001736111111
 20
10.69824896918403
 30
0.0
 10
0.2401123046875
 20
10.69824896918403
 30
0.0
 10
0.2362196180555556
 20
10.70213487413194
 30
0.0
 10
0.2362196180555556
 20
10.70692952473958
 30
0.0
 10
0.2362196180555556
 20
10.70692952473958
 30
0.0
 10
0.2362196180555556
 20
10.71829562717014
 30
0.0
 10
0.2362196180555556
 20
10.71829562717014
 30
0.0
 10
0.2362196180555556
 20
10.71889241536458
 30
0.0
 10
0.2362874348958333
 20
10.71948920355903
 30
0.0
 10
0.2364095052083333
 20
10.72007921006944
 30
0.0
 10
0.2364095052083333
 20
10.72007921006944
 30
0.0
 10
0.2425401475694444
 20
10.74931504991319
 30
0.0
 10
0.2425401475694444
 20
10.74931504991319
 30
0.0
 10
0.2425401475694444
 20
10.74931504991319
 30
0.0
 10
0.2340494791666667
 20
10.74931504991319
 30
0.0
 10
0.2340494791666667
 20
10.74931504991319
 30
0.0
 10
0.2340494791666667
 20
10.74931504991319
 30
0.0
 10
0.2340494791666667
 20
10.80372450086806
 30
0.0
 10
0.2340494791666667
 20
10.80372450086806
 30
0.0
 10
0.2340494791666667
 20
10.80372450086806
 30
0.0
 10
0.2076958550347222
 20
10.81892225477431
 30
0.0
 10
0.2076958550347222
 20
10.81892225477431
 30
0.0
 10
0.2050103081597222
 20
10.82047526041667
 30
0.0
 10
0.2033555772569444
 20
10.82334391276042
 30
0.0
 10
0.2033555772569444
 20
10.82644314236111
 30
0.0
  0
HATCH
  5
43
330
1F
100
AcDbEntity
  8
Bottom Board
 62
   102
100
AcDbHatch
 10
0.0
 20
0.0
 30
0.0
210
0.0
220
0.0
230
1.0
  2
SOLID
 70
     1
 71
     0
 91
        1
 92
        1
 93
        1
 72
     4
 94
        3
 73
     0
 74
     1
 95
       98
 96
       94
 40
0.0
 40
0.0
 40
0.0
 40
0.0
 40
1.0
 40
1.0
 40
1.0
 40
2.0
 40
2.0
 40
2.0
 40
3.0
 40
3.0
 40
3.0
 40
4.0
 40
4.0
 40
4.0
 40
5.0
 40
5.0
 40
5.0
 40
6.0
 40
6.0
 40
6.0
 40
7.0
 40
7.0
 40
7.0
 40
8.0
 40
8.0
 40
8.0
 40
9.0
 40
9.0
 40
9.0
 40
10.0
 40
10.0
 40
10.0
 40
11.0
 40
11.0
 40
11.0
 40
12.0
 40
12.0
 40
12.0
 40
13.0
 40
13.0
 40
13.0
 40
14.0
 40
14.0
 40
14.0
 40
15.0
 40
15.0
 40
15.0
 40
16.0
 40
16.0
 40
16.0
 40
17.0
 40
17.0
 40
17.0
 40
18.0
 40
18.0
 40
18.0
 40
19.0
 40
19.0
 40
19.0
 40
20.0
 40
20.0
 40
20.0
 40
21.0
 40
21.0
 40
21.0
 40
22.0
 40
22.0
 40
22.0
 40
23.0
 40
23.0
 40
23.0
 40
24.0
 40
24.0
 40
24.0
 40
25.0
 40
25.0
 40
25.0
 40
26.0
 40
26.0
 40
26.0
 40
27.0
 40
27.0
 40
27.0
 40
28.0
 40
28.0
 40
28.0
 40
29.0
 40
29.0
 40
29.0
 40
30.0
 40
30.0
 40
30.0
 40
31.0
 40
31.0
 40
31.0
 40
31.0
 10
0.2033555772569444
 20
10.82644314236111
 10
0.2033555772569444
 20
10.82644314236111
 10
0.2033555772569444
 20
10.94955105251736
 10
0.2033555772569444
 20
10.94955105251736
 10
0.2033555772569444
 20
10.954345703125
 10
0.2072482638888889
 20
10.95823160807292
 10
0.2120361328125
 20
10.95823160807292
 10
0.2168240017361111
 20
10.95823160807292
 10
0.2207166883680556
 20
10.954345703125
 10
0.2207166883680556
 20
10.94955105251736
 10
0.2207166883680556
 20
10.94955105251736
 10
0.2207166883680556
 20
10.83145480685764
 10
0.2207166883680556
 20
10.83145480685764
 10
0.2207166883680556
 20
10.83145480685764
 10
0.2557508680555555
 20
10.81125217013889
 10
0.2557508680555555
 20
10.81125217013889
 10
0.2584364149305555
 20
10.80969916449653
 10
0.2600911458333333
 20
10.80683051215278
 10
0.2600911458333333
 20
10.80373128255208
 10
0.2600911458333333
 20
10.80373128255208
 10
0.2687717013888889
 20
10.80373128255208
 10
0.2687717013888889
 20
10.80373128255208
 10
0.2687717013888889
 20
10.80373128255208
 10
0.2687717013888889
 20
10.78520372178819
 10
0.2687717013888889
 20
10.78520372178819
 10
0.2687717013888889
 20
10.78520372178819
 10
0.2928331163194444
 20
10.78520372178819
 10
0.2928331163194444
 20
10.78520372178819
 10
0.2928331163194444
 20
10.78520372178819
 10
0.3321533203125
 20
10.79362657335069
 10
0.3321533203125
 20
10.79362657335069
 10
0.3335096571180555
 20
10.80866834852431
 10
0.3460422092013889
 20
10.82054307725694
 10
0.3613823784722222
 20
10.82054307725694
 10
0.3777262369791666
 20
10.82054307725694
 10
0.3909369574652777
 20
10.80727132161458
 10
0.3909369574652777
 20
10.79096815321181
 10
0.3909369574652777
 20
10.77465142144097
 10
0.3777262369791666
 20
10.76148139105903
 10
0.3613823784722222
 20
10.76148139105903
 10
0.350341796875
 20
10.76148139105903
 10
0.3408067491319444
 20
10.76762559678819
 10
0.3357476128472222
 20
10.77663845486111
 10
0.3357476128472222
 20
10.77663845486111
 10
0.2955729166666666
 20
10.76803249782986
 10
0.2955729166666666
 20
10.76803249782986
 10
0.2949761284722222
 20
10.76791042751736
 10
0.2943657769097222
 20
10.76784261067708
 10
0.2937554253472222
 20
10.76784261067708
 10
0.2937554253472222
 20
10.76784261067708
 10
0.2687717013888889
 20
10.76784261067708
 10
0.2687717013888889
 20
10.76784261067708
 10
0.2687717013888889
 20
10.76784261067708
 10
0.2687717013888889
 20
10.74931504991319
 10
0.2687717013888889
 20
10.74931504991319
 10
0.2687717013888889
 20
10.74931504991319
 10
0.2600911458333333
 20
10.74931504991319
 10
0.2600911458333333
 20
10.74931504991319
 10
0.2600911458333333
 20
10.74871826171875
 10
0.2600233289930555
 20
10.74812147352431
 10
0.2599012586805555
 20
10.74753146701389
 10
0.2599012586805555
 20
10.74753146701389
 10
0.2535807291666666
 20
10.71739366319444
 10
0.2535807291666666
 20
10.71739366319444
 10
0.2535807291666666
 20
10.71739366319444
 10
0.2535807291666666
 20
10.70692952473958
 10
0.2535807291666666
 20
10.70692952473958
 10
0.2535807291666666
 20
10.70213487413194
 10
0.2496880425347222
 20
10.69824896918403
 10
0.2449001736111111
 20
10.69824896918403
 10
0.2401123046875
 20
10.69824896918403
 10
0.2362196180555556
 20
10.70213487413194
 10
0.2362196180555556
 20
10.70692952473958
 10
0.2362196180555556
 20
10.70692952473958
 10
0.2362196180555556
 20
10.71829562717014
 10
0.2362196180555556
 20
10.71829562717014
 10
0.2362196180555556
 20
10.71889241536458
 10
0.2362874348958333
 20
10.71948920355903
 10
0.2364095052083333
 20
10.72007921006944
 10
0.2364095052083333
 20
10.72007921006944
 10
0.2425401475694444
 20
10.74931504991319
 10
0.2425401475694444
 20
10.74931504991319
 10
0.2425401475694444
 20
10.74931504991319
 10
0.2340494791666667
 20
10.74931504991319
 10
0.2340494791666667
 20
10.74931504991319
 10
0.2340494791666667
 20
10.74931504991319
 10
0.2340494791666667
 20
10.80372450086806
 10
0.2340494791666667
 20
10.80372450086806
 10
0.2340494791666667
 20
10.80372450086806
 10
0.2076958550347222
 20
10.81892225477431
 10
0.2076958550347222
 20
10.81892225477431
 10
0.2050103081597222
 20
10.82047526041667
 10
0.2033555772569444
 20
10.82334391276042
 10
0.2033555772569444
 20
10.82644314236111
 97
        0
 75
     2
 76
     1
 98
        0
  0
SPLINE
  5
44
330
1F
100
AcDbEntity
  8
Bottom Board
370
     0
100
AcDbSpline
210
0.0
220
0.0
230
1.0
 70
    11
 71
     3
 72
    29
 73
    25
 74
     0
 42
0.0000000001
 43
0.0000000001
 40
0.0
 40
0.0
 40
0.0
 40
0.0
 40
1.0
 40
1.0
 40
1.0
 40
2.0
 40
2.0
 40
2.0
 40
3.0
 40
3.0
 40
3.0
 40
4.0
 40
4.0
 40
4.0
 40
5.0
 40
5.0
 40
5.0
 40
6.0
 40
6.0
 40
6.0
 40
7.0
 40
7.0
 40
7.0
 40
8.0
 40
8.0
 40
8.0
 40
8.0
 10
0.0
 20
10.96974012586806
 30
0.0
 10
0.0
 20
10.96974012586806
 30
0.0
 10
0.0
 20
10.41250949435764
 30
0.0
 10
0.0
 20
10.41250949435764
 30
0.0
 10
0.0
 20
10.39619276258681
 30
0.0
 10
0.0132514105902778
 20
10.38302273220486
 30
0.0
 10
0.0295003255208333
 20
10.38302273220486
 30
0.0
 10
0.0295003255208333
 20
10.38302273220486
 30
0.0
 10
0.3932698567708333
 20
10.38302273220486
 30
0.0
 10
0.3932698567708333
 20
10.38302273220486
 30
0.0
 10
0.4096137152777777
 20
10.38302273220486
 30
0.0
 10
0.4228244357638888
 20
10.39619276258681
 30
0.0
 10
0.4228244357638888
 20
10.41250949435764
 30
0.0
 10
0.4228244357638888
 20
10.41250949435764
 30
0.0
 10
0.4228244357638888
 20
10.96974012586806
 30
0.0
 10
0.4228244357638888
 20
10.96974012586806
 30
0.0
 10
0.4228244357638888
 20
10.98604329427083
 30
0.0
 10
0.4096137152777777
 20
10.99932183159722
 30
0.0
 10
0.3932698567708333
 20
10.99932183159722
 30
0.0
 10
0.3932698567708333
 20
10.99932183159722
 30
0.0
 10
0.0295003255208333
 20
10.99932183159722
 30
0.0
 10
0.0295003255208333
 20
10.99932183159722
 30
0.0
 10
0.0132514105902778
 20
10.99932183159722
 30
0.0
 10
0.0
 20
10.98604329427083
 30
0.0
 10
0.0
 20
10.96974012586806
 30
0.0
  0
SPLINE
  5
45
330
1F
100
AcDbEntity
  8
Bottom Board
370
     0
100
AcDbSpline
210
0.0
220
0.0
230
1.0
 70
    11
 71
     3
 72
   161
 73
   157
 74
     0
 42
0.0000000001
 43
0.0000000001
 40
0.0
 40
0.0
 40
0.0
 40
0.0
 40
1.0
 40
1.0
 40
1.0
 40
2.0
 40
2.0
 40
2.0
 40
3.0
 40
3.0
 40
3.0
 40
4.0
 40
4.0
 40
4.0
 40
5.0
 40
5.0
 40
5.0
 40
6.0
 40
6.0
 40
6.0
 40
7.0
 40
7.0
 40
7.0
 40
8.0
 40
8.0
 40
8.0
 40
9.0
 40
9.0
 40
9.0
 40
10.0
 40
10.0
 40
10.0
 40
11.0
 40
11.0
 40
11.0
 40
12.0
 40
12.0
 40
12.0
 40
13.0
 40
13.0
 40
13.0
 40
14.0
 40
14.0
 40
14.0
 40
15.0
 40
15.0
 40
15.0
 40
16.0
 40
16.0
 40
16.0
 40
17.0
 40
17.0
 40
17.0
 40
18.0
 40
18.0
 40
18.0
 40
19.0
 40
19.0
 40
19.0
 40
20.0
 40
20.0
 40
20.0
 40
21.0
 40
21.0
 40
21.0
 40
22.0
 40
22.0
 40
22.0
 40
23.0
 40
23.0
 40
23.0
 40
24.0
 40
24.0
 40
24.0
 40
25.0
 40
25.0
 40
25.0
 40
26.0
 40
26.0
 40
26.0
 40
27.0
 40
27.0
 40
27.0
 40
28.0
 40
28.0
 40
28.0
 40
29.0
 40
29.0
 40
29.0
 40
30.0
 40
30.0
 40
30.0
 40
31.0
 40
31.0
 40
31.0
 40
32.0
 40
32.0
 40
32.0
 40
33.0
 40
33.0
 40
33.0
 40
34.0
 40
34.0
 40
34.0
 40
35.0
 40
35.0
 40
35.0
 40
36.0
 40
36.0
 40
36.0
 40
37.0
 40
37.0
 40
37.0
 40
38.0
 40
38.0
 40
38.0
 40
39.0
 40
39.0
 40
39.0
 40
40.0
 40
40.0
 40
40.0
 40
41.0
 40
41.0
 40
41.0
 40
42.0
 40
42.0
 40
42.0
 40
43.0
 40
43.0
 40
43.0
 40
44.0
 40
44.0
 40
44.0
 40
45.0
 40
45.0
 40
45.0
 40
46.0
 40
46.0
 40
46.0
 40
47.0
 40
47.0
 40
47.0
 40
48.0
 40
48.0
 40
48.0
 40
49.0
 40
49.0
 40
49.0
 40
50.0
 40
50.0
 40
50.0
 40
51.0
 40
51.0
 40
51.0
 40
52.0
 40
52.0
 40
52.0
 40
52.0
 10
0.1228298611111111
 20
10.40701633029514
 30
0.0
 10
0.1228298611111111
 20
10.40701633029514
 30
0.0
 10
0.1228298611111111
 20
10.54062906901042
 30
0.0
 10
0.1228298611111111
 20
10.54062906901042
 30
0.0
 10
0.1228298611111111
 20
10.54062906901042
 30
0.0
 10
0.1553141276041667
 20
10.54062906901042
 30
0.0
 10
0.1553141276041667
 20
10.54062906901042
 30
0.0
 10
0.1553141276041667
 20
10.54062906901042
 30
0.0
 10
0.1553141276041667
 20
10.52211507161458
 30
0.0
 10
0.1553141276041667
 20
10.52211507161458
 30
0.0
 10
0.1553141276041667
 20
10.52211507161458
 30
0.0
 10
0.1900363498263889
 20
10.52211507161458
 30
0.0
 10
0.1900363498263889
 20
10.52211507161458
 30
0.0
 10
0.1900363498263889
 20
10.52211507161458
 30
0.0
 10
0.1900363498263889
 20
10.57651774088542
 30
0.0
 10
0.1900363498263889
 20
10.57651774088542
 30
0.0
 10
0.1900363498263889
 20
10.57651774088542
 30
0.0
 10
0.1553141276041667
 20
10.57651774088542
 30
0.0
 10
0.1553141276041667
 20
10.57651774088542
 30
0.0
 10
0.1553141276041667
 20
10.57651774088542
 30
0.0
 10
0.1553141276041667
 20
10.55799018012153
 30
0.0
 10
0.1553141276041667
 20
10.55799018012153
 30
0.0
 10
0.1553141276041667
 20
10.55799018012153
 30
0.0
 10
0.1228298611111111
 20
10.55799018012153
 30
0.0
 10
0.1228298611111111
 20
10.55799018012153
 30
0.0
 10
0.1228298611111111
 20
10.55799018012153
 30
0.0
 10
0.1228298611111111
 20
10.76784261067708
 30
0.0
 10
0.1228298611111111
 20
10.76784261067708
 30
0.0
 10
0.1228298611111111
 20
10.76784261067708
 30
0.0
 10
0.1553141276041667
 20
10.76784261067708
 30
0.0
 10
0.1553141276041667
 20
10.76784261067708
 30
0.0
 10
0.1553141276041667
 20
10.76784261067708
 30
0.0
 10
0.1553141276041667
 20
10.74931504991319
 30
0.0
 10
0.1553141276041667
 20
10.74931504991319
 30
0.0
 10
0.1553141276041667
 20
10.74931504991319
 30
0.0
 10
0.1900363498263889
 20
10.74931504991319
 30
0.0
 10
0.1900363498263889
 20
10.74931504991319
 30
0.0
 10
0.1900363498263889
 20
10.74931504991319
 30
0.0
 10
0.1900363498263889
 20
10.80373128255208
 30
0.0
 10
0.1900363498263889
 20
10.80373128255208
 30
0.0
 10
0.1900363498263889
 20
10.80373128255208
 30
0.0
 10
0.1553141276041667
 20
10.80373128255208
 30
0.0
 10
0.1553141276041667
 20
10.80373128255208
 30
0.0
 10
0.1553141276041667
 20
10.80373128255208
 30
0.0
 10
0.1553141276041667
 20
10.78520372178819
 30
0.0
 10
0.1553141276041667
 20
10.78520372178819
 30
0.0
 10
0.1553141276041667
 20
10.78520372178819
 30
0.0
 10
0.1228298611111111
 20
10.78520372178819
 30
0.0
 10
0.1228298611111111
 20
10.78520372178819
 30
0.0
 10
0.1228298611111111
 20
10.78520372178819
 30
0.0
 10
0.1228298611111111
 20
10.84133572048611
 30
0.0
 10
0.1228298611111111
 20
10.84133572048611
 30
0.0
 10
0.1228298611111111
 20
10.84133572048611
 30
0.0
 10
0.1746148003472222
 20
10.84133572048611
 30
0.0
 10
0.1746148003472222
 20
10.84133572048611
 30
0.0
 10
0.1794026692708333
 20
10.84133572048611
 30
0.0
 10
0.1832953559027778
 20
10.84522162543403
 30
0.0
 10
0.1832953559027778
 20
10.85001627604167
 30
0.0
 10
0.1832953559027778
 20
10.85001627604167
 30
0.0
 10
0.1832953559027778
 20
10.86621771918403
 30
0.0
 10
0.1832953559027778
 20
10.86621771918403
 30
0.0
 10
0.1832953559027778
 20
10.87101236979167
 30
0.0
 10
0.1794026692708333
 20
10.87489827473958
 30
0.0
 10
0.1746148003472222
 20
10.87489827473958
 30
0.0
 10
0.1698269314236111
 20
10.87489827473958
 30
0.0
 10
0.1659342447916667
 20
10.87101236979167
 30
0.0
 10
0.1659342447916667
 20
10.86621771918403
 30
0.0
 10
0.1659342447916667
 20
10.86621771918403
 30
0.0
 10
0.1659342447916667
 20
10.85869683159722
 30
0.0
 10
0.1659342447916667
 20
10.85869683159722
 30
0.0
 10
0.1659342447916667
 20
10.85869683159722
 30
0.0
 10
0.1228298611111111
 20
10.85869683159722
 30
0.0
 10
0.1228298611111111
 20
10.85869683159722
 30
0.0
 10
0.1228298611111111
 20
10.85869683159722
 30
0.0
 10
0.1228298611111111
 20
10.97689480251736
 30
0.0
 10
0.1228298611111111
 20
10.97689480251736
 30
0.0
 10
0.1228298611111111
 20
10.97689480251736
 30
0.0
 10
0.3614095052083333
 20
10.97689480251736
 30
0.0
 10
0.3614095052083333
 20
10.97689480251736
 30
0.0
 10
0.3614095052083333
 20
10.97689480251736
 30
0.0
 10
0.3613416883680555
 20
10.93825276692708
 30
0.0
 10
0.3613416883680555
 20
10.93825276692708
 30
0.0
 10
0.3873969184027777
 20
10.93825276692708
 30
0.0
 10
0.4086100260416666
 20
10.91703965928819
 30
0.0
 10
0.4086100260416666
 20
10.89097086588542
 30
0.0
 10
0.4086100260416666
 20
10.86494954427083
 30
0.0
 10
0.3873969184027777
 20
10.84377712673611
 30
0.0
 10
0.3613416883680555
 20
10.84377712673611
 30
0.0
 10
0.3613416883680555
 20
10.84377712673611
 30
0.0
 10
0.3613416883680555
 20
10.83825005425347
 30
0.0
 10
0.3613416883680555
 20
10.83825005425347
 30
0.0
 10
0.3873969184027777
 20
10.83825005425347
 30
0.0
 10
0.4086100260416666
 20
10.81703694661458
 30
0.0
 10
0.4086100260416666
 20
10.79096815321181
 30
0.0
 10
0.4086100260416666
 20
10.76494004991319
 30
0.0
 10
0.3873969184027777
 20
10.74378119574653
 30
0.0
 10
0.3613416883680555
 20
10.74378119574653
 30
0.0
 10
0.3375515407986111
 20
10.74378119574653
 30
0.0
 10
0.3181966145833333
 20
10.72415500217014
 30
0.0
 10
0.3181966145833333
 20
10.70032416449653
 30
0.0
 10
0.3181966145833333
 20
10.70032416449653
 30
0.0
 10
0.3181966145833333
 20
10.68159315321181
 30
0.0
 10
0.3181966145833333
 20
10.68159315321181
 30
0.0
 10
0.3181966145833333
 20
10.67790391710069
 30
0.0
 10
0.3188069661458333
 20
10.67436387803819
 30
0.0
 10
0.3196750217013889
 20
10.67093234592014
 30
0.0
 10
0.3196750217013889
 20
10.67093234592014
 30
0.0
 10
0.2908935546875
 20
10.64963785807292
 30
0.0
 10
0.2908935546875
 20
10.64963785807292
 30
0.0
 10
0.2908935546875
 20
10.64963785807292
 30
0.0
 10
0.2508002387152778
 20
10.64963785807292
 30
0.0
 10
0.2508002387152778
 20
10.64963785807292
 30
0.0
 10
0.2508002387152778
 20
10.64963785807292
 30
0.0
 10
0.2508002387152778
 20
10.65224202473958
 30
0.0
 10
0.2508002387152778
 20
10.65224202473958
 30
0.0
 10
0.2508002387152778
 20
10.65224202473958
 30
0.0
 10
0.2134195963541667
 20
10.65224202473958
 30
0.0
 10
0.2134195963541667
 20
10.65224202473958
 30
0.0
 10
0.2134195963541667
 20
10.65224202473958
 30
0.0
 10
0.2134195963541667
 20
10.63385009765625
 30
0.0
 10
0.2134195963541667
 20
10.63385009765625
 30
0.0
 10
0.2147894965277778
 20
10.63294135199653
 30
0.0
 10
0.2163492838541667
 20
10.63227674696181
 30
0.0
 10
0.2181125217013889
 20
10.63227674696181
 30
0.0
 10
0.2181125217013889
 20
10.63227674696181
 30
0.0
 10
0.2937554253472222
 20
10.63227674696181
 30
0.0
 10
0.2937554253472222
 20
10.63227674696181
 30
0.0
 10
0.2956136067708333
 20
10.63227674696181
 30
0.0
 10
0.2974175347222222
 20
10.63287353515625
 30
0.0
 10
0.2989230685763889
 20
10.63397216796875
 30
0.0
 10
0.2989230685763889
 20
10.63397216796875
 30
0.0
 10
0.3274468315972222
 20
10.65507676866319
 30
0.0
 10
0.3274468315972222
 20
10.65507676866319
 30
0.0
 10
0.3353542751736111
 20
10.64486355251736
 30
0.0
 10
0.3475341796875
 20
10.63813612196181
 30
0.0
 10
0.3613416883680555
 20
10.63813612196181
 30
0.0
 10
0.3873969184027777
 20
10.63813612196181
 30
0.0
 10
0.4086100260416666
 20
10.61697726779514
 30
0.0
 10
0.4086100260416666
 20
10.59096272786458
 30
0.0
 10
0.4086100260416666
 20
10.56493462456597
 30
0.0
 10
0.3873969184027777
 20
10.54377577039931
 30
0.0
 10
0.3613416883680555
 20
10.54377577039931
 30
0.0
 10
0.3613416883680555
 20
10.54377577039931
 30
0.0
 10
0.3613416883680555
 20
10.53824191623264
 30
0.0
 10
0.3613416883680555
 20
10.53824191623264
 30
0.0
 10
0.3873969184027777
 20
10.53824191623264
 30
0.0
 10
0.4086100260416666
 20
10.51702880859375
 30
0.0
 10
0.4086100260416666
 20
10.49096001519097
 30
0.0
 10
0.4086100260416666
 20
10.46493191189236
 30
0.0
 10
0.3873969184027777
 20
10.44375949435764
 30
0.0
 10
0.3613416883680555
 20
10.44375949435764
 30
0.0
 10
0.3613416883680555
 20
10.44375949435764
 30
0.0
 10
0.3613416883680555
 20
10.40701633029514
 30
0.0
 10
0.3613416883680555
 20
10.40701633029514
 30
0.0
 10
0.3613416883680555
 20
10.40701633029514
 30
0.0
 10
0.1228298611111111
 20
10.40701633029514
 30
0.0
 10
0.1228298611111111
 20
10.40701633029514
 30
0.0
  0
SPLINE
  5
46
330
1F
100
AcDbEntity
  8
Bottom Board
370
     0
100
AcDbSpline
210
0.0
220
0.0
230
1.0
 70
    11
 71
     3
 72
    23
 73
    19
 74
     0
 42
0.0000000001
 43
0.0000000001
 40
0.0
 40
0.0
 40
0.0
 40
0.0
 40
1.0
 40
1.0
 40
1.0
 40
2.0
 40
2.0
 40
2.0
 40
3.0
 40
3.0
 40
3.0
 40
4.0
 40
4.0
 40
4.0
 40
5.0
 40
5.0
 40
5.0
 40
6.0
 40
6.0
 40
6.0
 40
6.0
 10
0.0259874131944444
 20
10.89096408420139
 30
0.0
 10
0.0259874131944444
 20
10.91052924262153
 30
0.0
 10
0.0418836805555556
 20
10.92644585503472
 30
0.0
 10
0.0613878038194444
 20
10.92644585503472
 30
0.0
 10
0.0810004340277778
 20
10.92644585503472
 30
0.0
 10
0.0968424479166667
 20
10.91052924262153
 30
0.0
 10
0.0968424479166667
 20
10.89096408420139
 30
0.0
 10
0.0968424479166667
 20
10.89096408420139
 30
0.0
 10
0.0968424479166667
 20
10.49094645182292
 30
0.0
 10
0.0968424479166667
 20
10.49094645182292
 30
0.0
 10
0.0968424479166667
 20
10.47137451171875
 30
0.0
 10
0.0810004340277778
 20
10.45557318793403
 30
0.0
 10
0.0613878038194444
 20
10.45557318793403
 30
0.0
 10
0.0418836805555556
 20
10.45557318793403
 30
0.0
 10
0.0259874131944444
 20
10.47137451171875
 30
0.0
 10
0.0259874131944444
 20
10.49094645182292
 30
0.0
 10
0.0259874131944444
 20
10.49094645182292
 30
0.0
 10
0.0259874131944444
 20
10.89096408420139
 30
0.0
 10
0.0259874131944444
 20
10.89096408420139
 30
0.0
  0
HATCH
  5
47
330
1F
100
AcDbEntity
  8
Bottom Board
 62
   102
100
AcDbHatch
 10
0.0
 20
0.0
 30
0.0
210
0.0
220
0.0
230
1.0
  2
SOLID
 70
     1
 71
     0
 91
        3
 92
        1
 93
        1
 72
     4
 94
        3
 73
     0
 74
     1
 95
       29
 96
       25
 40
0.0
 40
0.0
 40
0.0
 40
0.0
 40
1.0
 40
1.0
 40
1.0
 40
2.0
 40
2.0
 40
2.0
 40
3.0
 40
3.0
 40
3.0
 40
4.0
 40
4.0
 40
4.0
 40
5.0
 40
5.0
 40
5.0
 40
6.0
 40
6.0
 40
6.0
 40
7.0
 40
7.0
 40
7.0
 40
8.0
 40
8.0
 40
8.0
 40
8.0
 10
0.0
 20
10.96974012586806
 10
0.0
 20
10.96974012586806
 10
0.0
 20
10.41250949435764
 10
0.0
 20
10.41250949435764
 10
0.0
 20
10.39619276258681
 10
0.0132514105902778
 20
10.38302273220486
 10
0.0295003255208333
 20
10.38302273220486
 10
0.0295003255208333
 20
10.38302273220486
 10
0.3932698567708333
 20
10.38302273220486
 10
0.3932698567708333
 20
10.38302273220486
 10
0.4096137152777777
 20
10.38302273220486
 10
0.4228244357638888
 20
10.39619276258681
 10
0.4228244357638888
 20
10.41250949435764
 10
0.4228244357638888
 20
10.41250949435764
 10
0.4228244357638888
 20
10.96974012586806
 10
0.4228244357638888
 20
10.96974012586806
 10
0.4228244357638888
 20
10.98604329427083
 10
0.4096137152777777
 20
10.99932183159722
 10
0.3932698567708333
 20
10.99932183159722
 10
0.3932698567708333
 20
10.99932183159722
 10
0.0295003255208333
 20
10.99932183159722
 10
0.0295003255208333
 20
10.99932183159722
 10
0.0132514105902778
 20
10.99932183159722
 10
0.0
 20
10.98604329427083
 10
0.0
 20
10.96974012586806
 97
        0
 92
        1
 93
        1
 72
     4
 94
        3
 73
     0
 74
     1
 95
      161
 96
      157
 40
0.0
 40
0.0
 40
0.0
 40
0.0
 40
1.0
 40
1.0
 40
1.0
 40
2.0
 40
2.0
 40
2.0
 40
3.0
 40
3.0
 40
3.0
 40
4.0
 40
4.0
 40
4.0
 40
5.0
 40
5.0
 40
5.0
 40
6.0
 40
6.0
 40
6.0
 40
7.0
 40
7.0
 40
7.0
 40
8.0
 40
8.0
 40
8.0
 40
9.0
 40
9.0
 40
9.0
 40
10.0
 40
10.0
 40
10.0
 40
11.0
 40
11.0
 40
11.0
 40
12.0
 40
12.0
 40
12.0
 40
13.0
 40
13.0
 40
13.0
 40
14.0
 40
14.0
 40
14.0
 40
15.0
 40
15.0
 40
15.0
 40
16.0
 40
16.0
 40
16.0
 40
17.0
 40
17.0
 40
17.0
 40
18.0
 40
18.0
 40
18.0
 40
19.0
 40
19.0
 40
19.0
 40
20.0
 40
20.0
 40
20.0
 40
21.0
 40
21.0
 40
21.0
 40
22.0
 40
22.0
 40
22.0
 40
23.0
 40
23.0
 40
23.0
 40
24.0
 40
24.0
 40
24.0
 40
25.0
 40
25.0
 40
25.0
 40
26.0
 40
26.0
 40
26.0
 40
27.0
 40
27.0
 40
27.0
 40
28.0
 40
28.0
 40
28.0
 40
29.0
 40
29.0
 40
29.0
 40
30.0
 40
30.0
 40
30.0
 40
31.0
 40
31.0
 40
31.0
 40
32.0
 40
32.0
 40
32.0
 40
33.0
 40
33.0
 40
33.0
 40
34.0
 40
34.0
 40
34.0
 40
35.0
 40
35.0
 40
35.0
 40
36.0
 40
36.0
 40
36.0
 40
37.0
 40
37.0
 40
37.0
 40
38.0
 40
38.0
 40
38.0
 40
39.0
 40
39.0
 40
39.0
 40
40.0
 40
40.0
 40
40.0
 40
41.0
 40
41.0
 40
41.0
 40
42.0
 40
42.0
 40
42.0
 40
43.0
 40
43.0
 40
43.0
 40
44.0
 40
44.0
 40
44.0
 40
45.0
 40
45.0
 40
45.0
 40
46.0
 40
46.0
 40
46.0
 40
47.0
 40
47.0
 40
47.0
 40
48.0
 40
48.0
 40
48.0
 40
49.0
 40
49.0
 40
49.0
 40
50.0
 40
50.0
 40
50.0
 40
51.0
 40
51.0
 40
51.0
 40
52.0
 40
52.0
 40
52.0
 40
52.0
 10
0.1228298611111111
 20
10.40701633029514
 10
0.1228298611111111
 20
10.40701633029514
 10
0.1228298611111111
 20
10.54062906901042
 10
0.1228298611111111
 20
10.54062906901042
 10
0.1228298611111111
 20
10.54062906901042
 10
0.1553141276041667
 20
10.54062906901042
 10
0.1553141276041667
 20
10.54062906901042
 10
0.1553141276041667
 20
10.54062906901042
 10
0.1553141276041667
 20
10.52211507161458
 10
0.1553141276041667
 20
10.52211507161458
 10
0.1553141276041667
 20
10.52211507161458
 10
0.1900363498263889
 20
10.52211507161458
 10
0.1900363498263889
 20
10.52211507161458
 10
0.1900363498263889
 20
10.52211507161458
 10
0.1900363498263889
 20
10.57651774088542
 10
0.1900363498263889
 20
10.57651774088542
 10
0.1900363498263889
 20
10.57651774088542
 10
0.1553141276041667
 20
10.57651774088542
 10
0.1553141276041667
 20
10.57651774088542
 10
0.1553141276041667
 20
10.57651774088542
 10
0.1553141276041667
 20
10.55799018012153
 10
0.1553141276041667
 20
10.55799018012153
 10
0.1553141276041667
 20
10.55799018012153
 10
0.1228298611111111
 20
10.55799018012153
 10
0.1228298611111111
 20
10.55799018012153
 10
0.1228298611111111
 20
10.55799018012153
 10
0.1228298611111111
 20
10.76784261067708
 10
0.1228298611111111
 20
10.76784261067708
 10
0.1228298611111111
 20
10.76784261067708
 10
0.1553141276041667
 20
10.76784261067708
 10
0.1553141276041667
 20
10.76784261067708
 10
0.1553141276041667
 20
10.76784261067708
 10
0.1553141276041667
 20
10.74931504991319
 10
0.1553141276041667
 20
10.74931504991319
 10
0.1553141276041667
 20
10.74931504991319
 10
0.1900363498263889
 20
10.74931504991319
 10
0.1900363498263889
 20
10.74931504991319
 10
0.1900363498263889
 20
10.74931504991319
 10
0.1900363498263889
 20
10.80373128255208
 10
0.1900363498263889
 20
10.80373128255208
 10
0.1900363498263889
 20
10.80373128255208
 10
0.1553141276041667
 20
10.80373128255208
 10
0.1553141276041667
 20
10.80373128255208
 10
0.1553141276041667
 20
10.80373128255208
 10
0.1553141276041667
 20
10.78520372178819
 10
0.1553141276041667
 20
10.78520372178819
 10
0.1553141276041667
 20
10.78520372178819
 10
0.1228298611111111
 20
10.78520372178819
 10
0.1228298611111111
 20
10.78520372178819
 10
0.1228298611111111
 20
10.78520372178819
 10
0.1228298611111111
 20
10.84133572048611
 10
0.1228298611111111
 20
10.84133572048611
 10
0.1228298611111111
 20
10.84133572048611
 10
0.1746148003472222
 20
10.84133572048611
 10
0.1746148003472222
 20
10.84133572048611
 10
0.1794026692708333
 20
10.84133572048611
 10
0.1832953559027778
 20
10.84522162543403
 10
0.1832953559027778
 20
10.85001627604167
 10
0.1832953559027778
 20
10.85001627604167
 10
0.1832953559027778
 20
10.86621771918403
 10
0.1832953559027778
 20
10.86621771918403
 10
0.1832953559027778
 20
10.87101236979167
 10
0.1794026692708333
 20
10.87489827473958
 10
0.1746148003472222
 20
10.87489827473958
 10
0.1698269314236111
 20
10.87489827473958
 10
0.1659342447916667
 20
10.87101236979167
 10
0.1659342447916667
 20
10.86621771918403
 10
0.1659342447916667
 20
10.86621771918403
 10
0.1659342447916667
 20
10.85869683159722
 10
0.1659342447916667
 20
10.85869683159722
 10
0.1659342447916667
 20
10.85869683159722
 10
0.1228298611111111
 20
10.85869683159722
 10
0.1228298611111111
 20
10.85869683159722
 10
0.1228298611111111
 20
10.85869683159722
 10
0.1228298611111111
 20
10.97689480251736
 10
0.1228298611111111
 20
10.97689480251736
 10
0.1228298611111111
 20
10.97689480251736
 10
0.3614095052083333
 20
10.97689480251736
 10
0.3614095052083333
 20
10.97689480251736
 10
0.3614095052083333
 20
10.97689480251736
 10
0.3613416883680555
 20
10.93825276692708
 10
0.3613416883680555
 20
10.93825276692708
 10
0.3873969184027777
 20
10.93825276692708
 10
0.4086100260416666
 20
10.91703965928819
 10
0.4086100260416666
 20
10.89097086588542
 10
0.4086100260416666
 20
10.86494954427083
 10
0.3873969184027777
 20
10.84377712673611
 10
0.3613416883680555
 20
10.84377712673611
 10
0.3613416883680555
 20
10.84377712673611
 10
0.3613416883680555
 20
10.83825005425347
 10
0.3613416883680555
 20
10.83825005425347
 10
0.3873969184027777
 20
10.83825005425347
 10
0.4086100260416666
 20
10.81703694661458
 10
0.4086100260416666
 20
10.79096815321181
 10
0.4086100260416666
 20
10.76494004991319
 10
0.3873969184027777
 20
10.74378119574653
 10
0.3613416883680555
 20
10.74378119574653
 10
0.3375515407986111
 20
10.74378119574653
 10
0.3181966145833333
 20
10.72415500217014
 10
0.3181966145833333
 20
10.70032416449653
 10
0.3181966145833333
 20
10.70032416449653
 10
0.3181966145833333
 20
10.68159315321181
 10
0.3181966145833333
 20
10.68159315321181
 10
0.3181966145833333
 20
10.67790391710069
 10
0.3188069661458333
 20
10.67436387803819
 10
0.3196750217013889
 20
10.67093234592014
 10
0.3196750217013889
 20
10.67093234592014
 10
0.2908935546875
 20
10.64963785807292
 10
0.2908935546875
 20
10.64963785807292
 10
0.2908935546875
 20
10.64963785807292
 10
0.2508002387152778
 20
10.64963785807292
 10
0.2508002387152778
 20
10.64963785807292
 10
0.2508002387152778
 20
10.64963785807292
 10
0.2508002387152778
 20
10.65224202473958
 10
0.2508002387152778
 20
10.65224202473958
 10
0.2508002387152778
 20
10.65224202473958
 10
0.2134195963541667
 20
10.65224202473958
 10
0.2134195963541667
 20
10.65224202473958
 10
0.2134195963541667
 20
10.65224202473958
 10
0.2134195963541667
 20
10.63385009765625
 10
0.2134195963541667
 20
10.63385009765625
 10
0.2147894965277778
 20
10.63294135199653
 10
0.2163492838541667
 20
10.63227674696181
 10
0.2181125217013889
 20
10.63227674696181
 10
0.2181125217013889
 20
10.63227674696181
 10
0.2937554253472222
 20
10.63227674696181
 10
0.2937554253472222
 20
10.63227674696181
 10
0.2956136067708333
 20
10.63227674696181
 10
0.2974175347222222
 20
10.63287353515625
 10
0.2989230685763889
 20
10.63397216796875
 10
0.2989230685763889
 20
10.63397216796875
 10
0.3274468315972222
 20
10.65507676866319
 10
0.3274468315972222
 20
10.65507676866319
 10
0.3353542751736111
 20
10.64486355251736
 10
0.3475341796875
 20
10.63813612196181
 10
0.3613416883680555
 20
10.63813612196181
 10
0.3873969184027777
 20
10.63813612196181
 10
0.4086100260416666
 20
10.61697726779514
 10
0.4086100260416666
 20
10.59096272786458
 10
0.4086100260416666
 20
10.56493462456597
 10
0.3873969184027777
 20
10.54377577039931
 10
0.3613416883680555
 20
10.54377577039931
 10
0.3613416883680555
 20
10.54377577039931
 10
0.3613416883680555
 20
10.53824191623264
 10
0.3613416883680555
 20
10.53824191623264
 10
0.3873969184027777
 20
10.53824191623264
 10
0.4086100260416666
 20
10.51702880859375
 10
0.4086100260416666
 20
10.49096001519097
 10
0.4086100260416666
 20
10.46493191189236
 10
0.3873969184027777
 20
10.44375949435764
 10
0.3613416883680555
 20
10.44375949435764
 10
0.3613416883680555
 20
10.44375949435764
 10
0.3613416883680555
 20
10.40701633029514
 10
0.3613416883680555
 20
10.40701633029514
 10
0.3613416883680555
 20
10.40701633029514
 10
0.1228298611111111
 20
10.40701633029514
 10
0.1228298611111111
 20
10.40701633029514
 97
        0
 92
        1
 93
        1
 72
     4
 94
        3
 73
     0
 74
     1
 95
       23
 96
       19
 40
0.0
 40
0.0
 40
0.0
 40
0.0
 40
1.0
 40
1.0
 40
1.0
 40
2.0
 40
2.0
 40
2.0
 40
3.0
 40
3.0
 40
3.0
 40
4.0
 40
4.0
 40
4.0
 40
5.0
 40
5.0
 40
5.0
 40
6.0
 40
6.0
 40
6.0
 40
6.0
 10
0.0259874131944444
 20
10.89096408420139
 10
0.0259874131944444
 20
10.91052924262153
 10
0.0418836805555556
 20
10.92644585503472
 10
0.0613878038194444
 20
10.92644585503472
 10
0.0810004340277778
 20
10.92644585503472
 10
0.0968424479166667
 20
10.91052924262153
 10
0.0968424479166667
 20
10.89096408420139
 10
0.0968424479166667
 20
10.89096408420139
 10
0.0968424479166667
 20
10.49094645182292
 10
0.0968424479166667
 20
10.49094645182292
 10
0.0968424479166667
 20
10.47137451171875
 10
0.0810004340277778
 20
10.45557318793403
 10
0.0613878038194444
 20
10.45557318793403
 10
0.0418836805555556
 20
10.45557318793403
 10
0.0259874131944444
 20
10.47137451171875
 10
0.0259874131944444
 20
10.49094645182292
 10
0.0259874131944444
 20
10.49094645182292
 10
0.0259874131944444
 20
10.89096408420139
 10
0.0259874131944444
 20
10.89096408420139
 97
        0
 75
     2
 76
     1
 98
        0
  0
SPLINE
  5
49
330
1F
100
AcDbEntity
  8
Top Board
370
     0
100
AcDbSpline
210
0.0
220
0.0
230
1.0
 70
    11
 71
     3
 72
    44
 73
    40
 74
     0
 42
0.0000000001
 43
0.0000000001
 40
0.0
 40
0.0
 40
0.0
 40
0.0
 40
1.0
 40
1.0
 40
1.0
 40
2.0
 40
2.0
 40
2.0
 40
3.0
 40
3.0
 40
3.0
 40
4.0
 40
4.0
 40
4.0
 40
5.0
 40
5.0
 40
5.0
 40
6.0
 40
6.0
 40
6.0
 40
7.0
 40
7.0
 40
7.0
 40
8.0
 40
8.0
 40
8.0
 40
9.0
 40
9.0
 40
9.0
 40
10.0
 40
10.0
 40
10.0
 40
11.0
 40
11.0
 40
11.0
 40
12.0
 40
12.0
 40
12.0
 40
13.0
 40
13.0
 40
13.0
 40
13.0
 10
0.3909369574652777
 20
10.89164903428819
 30
0.0
 10
0.3909369574652777
 20
10.90795220269097
 30
0.0
 10
0.377685546875
 20
10.92122395833333
 30
0.0
 10
0.3614366319444444
 20
10.92122395833333
 30
0.0
 10
0.3450927734375
 20
10.92122395833333
 30
0.0
 10
0.3318820529513889
 20
10.90795220269097
 30
0.0
 10
0.3318820529513889
 20
10.89164903428819
 30
0.0
 10
0.3318820529513889
 20
10.88463677300347
 30
0.0
 10
0.3344184027777777
 20
10.87828911675347
 30
0.0
 10
0.3385009765625
 20
10.87323676215278
 30
0.0
 10
0.3385009765625
 20
10.87323676215278
 30
0.0
 10
0.3009982638888889
 20
10.81756591796875
 30
0.0
 10
0.3009982638888889
 20
10.81756591796875
 30
0.0
 10
0.3009982638888889
 20
10.81756591796875
 30
0.0
 10
0.3009982638888889
 20
10.82383219401042
 30
0.0
 10
0.3009982638888889
 20
10.82383219401042
 30
0.0
 10
0.3009982638888889
 20
10.82383219401042
 30
0.0
 10
0.2712673611111111
 20
10.82383219401042
 30
0.0
 10
0.2712673611111111
 20
10.82383219401042
 30
0.0
 10
0.2712673611111111
 20
10.82383219401042
 30
0.0
 10
0.2712673611111111
 20
10.78021240234375
 30
0.0
 10
0.2712673611111111
 20
10.78021240234375
 30
0.0
 10
0.2712673611111111
 20
10.78021240234375
 30
0.0
 10
0.3009982638888889
 20
10.78021240234375
 30
0.0
 10
0.3009982638888889
 20
10.78021240234375
 30
0.0
 10
0.3009982638888889
 20
10.78021240234375
 30
0.0
 10
0.3009982638888889
 20
10.79334174262153
 30
0.0
 10
0.3009982638888889
 20
10.79334174262153
 30
0.0
 10
0.3038872612847222
 20
10.79334174262153
 30
0.0
 10
0.3065863715277777
 20
10.79477945963542
 30
0.0
 10
0.3082004123263889
 20
10.79717339409722
 30
0.0
 10
0.3082004123263889
 20
10.79717339409722
 30
0.0
 10
0.3529188368055555
 20
10.86354573567708
 30
0.0
 10
0.3529188368055555
 20
10.86354573567708
 30
0.0
 10
0.3556315104166666
 20
10.86273193359375
 30
0.0
 10
0.3584526909722222
 20
10.86216227213542
 30
0.0
 10
0.3614366319444444
 20
10.86216227213542
 30
0.0
 10
0.377685546875
 20
10.86216227213542
 30
0.0
 10
0.3909369574652777
 20
10.87533230251736
 30
0.0
 10
0.3909369574652777
 20
10.89164903428819
 30
0.0
  0
HATCH
  5
4A
330
1F
100
AcDbEntity
  8
Top Board
 62
   102
100
AcDbHatch
 10
0.0
 20
0.0
 30
0.0
210
0.0
220
0.0
230
1.0
  2
SOLID
 70
     1
 71
     0
 91
        1
 92
        1
 93
        1
 72
     4
 94
        3
 73
     0
 74
     1
 95
       44
 96
       40
 40
0.0
 40
0.0
 40
0.0
 40
0.0
 40
1.0
 40
1.0
 40
1.0
 40
2.0
 40
2.0
 40
2.0
 40
3.0
 40
3.0
 40
3.0
 40
4.0
 40
4.0
 40
4.0
 40
5.0
 40
5.0
 40
5.0
 40
6.0
 40
6.0
 40
6.0
 40
7.0
 40
7.0
 40
7.0
 40
8.0
 40
8.0
 40
8.0
 40
9.0
 40
9.0
 40
9.0
 40
10.0
 40
10.0
 40
10.0
 40
11.0
 40
11.0
 40
11.0
 40
12.0
 40
12.0
 40
12.0
 40
13.0
 40
13.0
 40
13.0
 40
13.0
 10
0.3909369574652777
 20
10.89164903428819
 10
0.3909369574652777
 20
10.90795220269097
 10
0.377685546875
 20
10.92122395833333
 10
0.3614366319444444
 20
10.92122395833333
 10
0.3450927734375
 20
10.92122395833333
 10
0.3318820529513889
 20
10.90795220269097
 10
0.3318820529513889
 20
10.89164903428819
 10
0.3318820529513889
 20
10.88463677300347
 10
0.3344184027777777
 20
10.87828911675347
 10
0.3385009765625
 20
10.87323676215278
 10
0.3385009765625
 20
10.87323676215278
 10
0.3009982638888889
 20
10.81756591796875
 10
0.3009982638888889
 20
10.81756591796875
 10
0.3009982638888889
 20
10.81756591796875
 10
0.3009982638888889
 20
10.82383219401042
 10
0.3009982638888889
 20
10.82383219401042
 10
0.3009982638888889
 20
10.82383219401042
 10
0.2712673611111111
 20
10.82383219401042
 10
0.2712673611111111
 20
10.82383219401042
 10
0.2712673611111111
 20
10.82383219401042
 10
0.2712673611111111
 20
10.78021240234375
 10
0.2712673611111111
 20
10.78021240234375
 10
0.2712673611111111
 20
10.78021240234375
 10
0.3009982638888889
 20
10.78021240234375
 10
0.3009982638888889
 20
10.78021240234375
 10
0.3009982638888889
 20
10.78021240234375
 10
0.3009982638888889
 20
10.79334174262153
 10
0.3009982638888889
 20
10.79334174262153
 10
0.3038872612847222
 20
10.79334174262153
 10
0.3065863715277777
 20
10.79477945963542
 10
0.3082004123263889
 20
10.79717339409722
 10
0.3082004123263889
 20
10.79717339409722
 10
0.3529188368055555
 20
10.86354573567708
 10
0.3529188368055555
 20
10.86354573567708
 10
0.3556315104166666
 20
10.86273193359375
 10
0.3584526909722222
 20
10.86216227213542
 10
0.3614366319444444
 20
10.86216227213542
 10
0.377685546875
 20
10.86216227213542
 10
0.3909369574652777
 20
10.87533230251736
 10
0.3909369574652777
 20
10.89164903428819
 97
        0
 75
     2
 76
     1
 98
        0
  0
SPLINE
  5
4B
330
1F
100
AcDbEntity
  8
Top Board
370
     0
100
AcDbSpline
210
0.0
220
0.0
230
1.0
 70
    11
 71
     3
 72
    17
 73
    13
 74
     0
 42
0.0000000001
 43
0.0000000001
 40
0.0
 40
0.0
 40
0.0
 40
0.0
 40
1.0
 40
1.0
 40
1.0
 40
2.0
 40
2.0
 40
2.0
 40
3.0
 40
3.0
 40
3.0
 40
4.0
 40
4.0
 40
4.0
 40
4.0
 10
0.0614420572916667
 20
10.82122124565972
 30
0.0
 10
0.0450981987847222
 20
10.82122124565972
 30
0.0
 10
0.0318874782986111
 20
10.80794949001736
 30
0.0
 10
0.0318874782986111
 20
10.79164632161458
 30
0.0
 10
0.0318874782986111
 20
10.77532958984375
 30
0.0
 10
0.0450981987847222
 20
10.76215955946181
 30
0.0
 10
0.0614420572916667
 20
10.76215955946181
 30
0.0
 10
0.0776909722222222
 20
10.76215955946181
 30
0.0
 10
0.0909423828125
 20
10.77532958984375
 30
0.0
 10
0.0909423828125
 20
10.79164632161458
 30
0.0
 10
0.0909423828125
 20
10.80794949001736
 30
0.0
 10
0.0776909722222222
 20
10.82122124565972
 30
0.0
 10
0.0614420572916667
 20
10.82122124565972
 30
0.0
  0
HATCH
  5
4C
330
1F
100
AcDbEntity
  8
Top Board
 62
   102
100
AcDbHatch
 10
0.0
 20
0.0
 30
0.0
210
0.0
220
0.0
230
1.0
  2
SOLID
 70
     1
 71
     0
 91
        1
 92
        1
 93
        1
 72
     4
 94
        3
 73
     0
 74
     1
 95
       17
 96
       13
 40
0.0
 40
0.0
 40
0.0
 40
0.0
 40
1.0
 40
1.0
 40
1.0
 40
2.0
 40
2.0
 40
2.0
 40
3.0
 40
3.0
 40
3.0
 40
4.0
 40
4.0
 40
4.0
 40
4.0
 10
0.0614420572916667
 20
10.82122124565972
 10
0.0450981987847222
 20
10.82122124565972
 10
0.0318874782986111
 20
10.80794949001736
 10
0.0318874782986111
 20
10.79164632161458
 10
0.0318874782986111
 20
10.77532958984375
 10
0.0450981987847222
 20
10.76215955946181
 10
0.0614420572916667
 20
10.76215955946181
 10
0.0776909722222222
 20
10.76215955946181
 10
0.0909423828125
 20
10.77532958984375
 10
0.0909423828125
 20
10.79164632161458
 10
0.0909423828125
 20
10.80794949001736
 10
0.0776909722222222
 20
10.82122124565972
 10
0.0614420572916667
 20
10.82122124565972
 97
        0
 75
     2
 76
     1
 98
        0
  0
SPLINE
  5
4D
330
1F
100
AcDbEntity
  8
Top Board
370
     0
100
AcDbSpline
210
0.0
220
0.0
230
1.0
 70
    11
 71
     3
 72
    47
 73
    43
 74
     0
 42
0.0000000001
 43
0.0000000001
 40
0.0
 40
0.0
 40
0.0
 40
0.0
 40
1.0
 40
1.0
 40
1.0
 40
2.0
 40
2.0
 40
2.0
 40
3.0
 40
3.0
 40
3.0
 40
4.0
 40
4.0
 40
4.0
 40
5.0
 40
5.0
 40
5.0
 40
6.0
 40
6.0
 40
6.0
 40
7.0
 40
7.0
 40
7.0
 40
8.0
 40
8.0
 40
8.0
 40
9.0
 40
9.0
 40
9.0
 40
10.0
 40
10.0
 40
10.0
 40
11.0
 40
11.0
 40
11.0
 40
12.0
 40
12.0
 40
12.0
 40
13.0
 40
13.0
 40
13.0
 40
14.0
 40
14.0
 40
14.0
 40
14.0
 10
0.3333333333333333
 20
10.70037841796875
 30
0.0
 10
0.3333333333333333
 20
10.70037841796875
 30
0.0
 10
0.194580078125
 20
10.70037841796875
 30
0.0
 10
0.194580078125
 20
10.70037841796875
 30
0.0
 10
0.194580078125
 20
10.70037841796875
 30
0.0
 10
0.194580078125
 20
10.78021240234375
 30
0.0
 10
0.194580078125
 20
10.78021240234375
 30
0.0
 10
0.194580078125
 20
10.78021240234375
 30
0.0
 10
0.2007649739583333
 20
10.78021240234375
 30
0.0
 10
0.2007649739583333
 20
10.78021240234375
 30
0.0
 10
0.2007649739583333
 20
10.78021240234375
 30
0.0
 10
0.2007649739583333
 20
10.82383219401042
 30
0.0
 10
0.2007649739583333
 20
10.82383219401042
 30
0.0
 10
0.2007649739583333
 20
10.82383219401042
 30
0.0
 10
0.1710476345486111
 20
10.82383219401042
 30
0.0
 10
0.1710476345486111
 20
10.82383219401042
 30
0.0
 10
0.1710476345486111
 20
10.82383219401042
 30
0.0
 10
0.1710476345486111
 20
10.78021240234375
 30
0.0
 10
0.1710476345486111
 20
10.78021240234375
 30
0.0
 10
0.1710476345486111
 20
10.78021240234375
 30
0.0
 10
0.1772189670138889
 20
10.78021240234375
 30
0.0
 10
0.1772189670138889
 20
10.78021240234375
 30
0.0
 10
0.1772189670138889
 20
10.78021240234375
 30
0.0
 10
0.1772189670138889
 20
10.69169786241319
 30
0.0
 10
0.1772189670138889
 20
10.69169786241319
 30
0.0
 10
0.1772189670138889
 20
10.68690999348958
 30
0.0
 10
0.1811116536458333
 20
10.68301730685764
 30
0.0
 10
0.1858995225694444
 20
10.68301730685764
 30
0.0
 10
0.1858995225694444
 20
10.68301730685764
 30
0.0
 10
0.3333197699652777
 20
10.68301730685764
 30
0.0
 10
0.3333197699652777
 20
10.68301730685764
 30
0.0
 10
0.3370225694444444
 20
10.67095947265625
 30
0.0
 10
0.3481309678819444
 20
10.66217041015625
 30
0.0
 10
0.3614366319444444
 20
10.66217041015625
 30
0.0
 10
0.377685546875
 20
10.66217041015625
 30
0.0
 10
0.3909369574652777
 20
10.67534044053819
 30
0.0
 10
0.3909369574652777
 20
10.69165717230903
 30
0.0
 10
0.3909369574652777
 20
10.70796034071181
 30
0.0
 10
0.377685546875
 20
10.72123209635417
 30
0.0
 10
0.3614366319444444
 20
10.72123209635417
 30
0.0
 10
0.3481580946180555
 20
10.72123209635417
 30
0.0
 10
0.3370768229166666
 20
10.71240912543403
 30
0.0
 10
0.3333333333333333
 20
10.70037841796875
 30
0.0
  0
HATCH
  5
4E
330
1F
100
AcDbEntity
  8
Top Board
 62
   102
100
AcDbHatch
 10
0.0
 20
0.0
 30
0.0
210
0.0
220
0.0
230
1.0
  2
SOLID
 70
     1
 71
     0
 91
        1
 92
        1
 93
        1
 72
     4
 94
        3
 73
     0
 74
     1
 95
       47
 96
       43
 40
0.0
 40
0.0
 40
0.0
 40
0.0
 40
1.0
 40
1.0
 40
1.0
 40
2.0
 40
2.0
 40
2.0
 40
3.0
 40
3.0
 40
3.0
 40
4.0
 40
4.0
 40
4.0
 40
5.0
 40
5.0
 40
5.0
 40
6.0
 40
6.0
 40
6.0
 40
7.0
 40
7.0
 40
7.0
 40
8.0
 40
8.0
 40
8.0
 40
9.0
 40
9.0
 40
9.0
 40
10.0
 40
10.0
 40
10.0
 40
11.0
 40
11.0
 40
11.0
 40
12.0
 40
12.0
 40
12.0
 40
13.0
 40
13.0
 40
13.0
 40
14.0
 40
14.0
 40
14.0
 40
14.0
 10
0.3333333333333333
 20
10.70037841796875
 10
0.3333333333333333
 20
10.70037841796875
 10
0.194580078125
 20
10.70037841796875
 10
0.194580078125
 20
10.70037841796875
 10
0.194580078125
 20
10.70037841796875
 10
0.194580078125
 20
10.78021240234375
 10
0.194580078125
 20
10.78021240234375
 10
0.194580078125
 20
10.78021240234375
 10
0.2007649739583333
 20
10.78021240234375
 10
0.2007649739583333
 20
10.78021240234375
 10
0.2007649739583333
 20
10.78021240234375
 10
0.2007649739583333
 20
10.82383219401042
 10
0.2007649739583333
 20
10.82383219401042
 10
0.2007649739583333
 20
10.82383219401042
 10
0.1710476345486111
 20
10.82383219401042
 10
0.1710476345486111
 20
10.82383219401042
 10
0.1710476345486111
 20
10.82383219401042
 10
0.1710476345486111
 20
10.78021240234375
 10
0.1710476345486111
 20
10.78021240234375
 10
0.1710476345486111
 20
10.78021240234375
 10
0.1772189670138889
 20
10.78021240234375
 10
0.1772189670138889
 20
10.78021240234375
 10
0.1772189670138889
 20
10.78021240234375
 10
0.1772189670138889
 20
10.69169786241319
 10
0.1772189670138889
 20
10.69169786241319
 10
0.1772189670138889
 20
10.68690999348958
 10
0.1811116536458333
 20
10.68301730685764
 10
0.1858995225694444
 20
10.68301730685764
 10
0.1858995225694444
 20
10.68301730685764
 10
0.3333197699652777
 20
10.68301730685764
 10
0.3333197699652777
 20
10.68301730685764
 10
0.3370225694444444
 20
10.67095947265625
 10
0.3481309678819444
 20
10.66217041015625
 10
0.3614366319444444
 20
10.66217041015625
 10
0.377685546875
 20
10.66217041015625
 10
0.3909369574652777
 20
10.67534044053819
 10
0.3909369574652777
 20
10.69165717230903
 10
0.3909369574652777
 20
10.70796034071181
 10
0.377685546875
 20
10.72123209635417
 10
0.3614366319444444
 20
10.72123209635417
 10
0.3481580946180555
 20
10.72123209635417
 10
0.3370768229166666
 20
10.71240912543403
 10
0.3333333333333333
 20
10.70037841796875
 97
        0
 75
     2
 76
     1
 98
        0
  0
SPLINE
  5
4F
330
1F
100
AcDbEntity
  8
Top Board
370
     0
100
AcDbSpline
210
0.0
220
0.0
230
1.0
 70
    11
 71
     3
 72
    59
 73
    55
 74
     0
 42
0.0000000001
 43
0.0000000001
 40
0.0
 40
0.0
 40
0.0
 40
0.0
 40
1.0
 40
1.0
 40
1.0
 40
2.0
 40
2.0
 40
2.0
 40
3.0
 40
3.0
 40
3.0
 40
4.0
 40
4.0
 40
4.0
 40
5.0
 40
5.0
 40
5.0
 40
6.0
 40
6.0
 40
6.0
 40
7.0
 40
7.0
 40
7.0
 40
8.0
 40
8.0
 40
8.0
 40
9.0
 40
9.0
 40
9.0
 40
10.0
 40
10.0
 40
10.0
 40
11.0
 40
11.0
 40
11.0
 40
12.0
 40
12.0
 40
12.0
 40
13.0
 40
13.0
 40
13.0
 40
14.0
 40
14.0
 40
14.0
 40
15.0
 40
15.0
 40
15.0
 40
16.0
 40
16.0
 40
16.0
 40
17.0
 40
17.0
 40
17.0
 40
18.0
 40
18.0
 40
18.0
 40
18.0
 10
0.3318820529513889
 20
10.79164632161458
 30
0.0
 10
0.3318820529513889
 20
10.78763156467014
 30
0.0
 10
0.3326958550347222
 20
10.7838134765625
 30
0.0
 10
0.3341471354166666
 20
10.78032769097222
 30
0.0
 10
0.3341471354166666
 20
10.78032769097222
 30
0.0
 10
0.2966851128472222
 20
10.74920654296875
 30
0.0
 10
0.2966851128472222
 20
10.74920654296875
 30
0.0
 10
0.2966851128472222
 20
10.74920654296875
 30
0.0
 10
0.2446831597222222
 20
10.74920654296875
 30
0.0
 10
0.2446831597222222
 20
10.74920654296875
 30
0.0
 10
0.2446831597222222
 20
10.74920654296875
 30
0.0
 10
0.2446831597222222
 20
10.78021240234375
 30
0.0
 10
0.2446831597222222
 20
10.78021240234375
 30
0.0
 10
0.2446831597222222
 20
10.78021240234375
 30
0.0
 10
0.2508680555555555
 20
10.78021240234375
 30
0.0
 10
0.2508680555555555
 20
10.78021240234375
 30
0.0
 10
0.2508680555555555
 20
10.78021240234375
 30
0.0
 10
0.2508680555555555
 20
10.82383219401042
 30
0.0
 10
0.2508680555555555
 20
10.82383219401042
 30
0.0
 10
0.2508680555555555
 20
10.82383219401042
 30
0.0
 10
0.2211371527777778
 20
10.82383219401042
 30
0.0
 10
0.2211371527777778
 20
10.82383219401042
 30
0.0
 10
0.2211371527777778
 20
10.82383219401042
 30
0.0
 10
0.2211371527777778
 20
10.78021240234375
 30
0.0
 10
0.2211371527777778
 20
10.78021240234375
 30
0.0
 10
0.2211371527777778
 20
10.78021240234375
 30
0.0
 10
0.2273220486111111
 20
10.78021240234375
 30
0.0
 10
0.2273220486111111
 20
10.78021240234375
 30
0.0
 10
0.2273220486111111
 20
10.78021240234375
 30
0.0
 10
0.2273220486111111
 20
10.74052598741319
 30
0.0
 10
0.2273220486111111
 20
10.74052598741319
 30
0.0
 10
0.2273220486111111
 20
10.73573133680556
 30
0.0
 10
0.2312147352430556
 20
10.73184543185764
 30
0.0
 10
0.2360026041666667
 20
10.73184543185764
 30
0.0
 10
0.2360026041666667
 20
10.73184543185764
 30
0.0
 10
0.2998182508680555
 20
10.73184543185764
 30
0.0
 10
0.2998182508680555
 20
10.73184543185764
 30
0.0
 10
0.3018391927083333
 20
10.73184543185764
 30
0.0
 10
0.3038058810763889
 20
10.73255750868056
 30
0.0
 10
0.3053656684027777
 20
10.73384602864583
 30
0.0
 10
0.3053656684027777
 20
10.73384602864583
 30
0.0
 10
0.3452690972222222
 20
10.76698811848958
 30
0.0
 10
0.3452690972222222
 20
10.76698811848958
 30
0.0
 10
0.3499213324652777
 20
10.76395670572917
 30
0.0
 10
0.3554551866319444
 20
10.76215955946181
 30
0.0
 10
0.3614366319444444
 20
10.76215955946181
 30
0.0
 10
0.377685546875
 20
10.76215955946181
 30
0.0
 10
0.3909369574652777
 20
10.77532958984375
 30
0.0
 10
0.3909369574652777
 20
10.79164632161458
 30
0.0
 10
0.3909369574652777
 20
10.80794949001736
 30
0.0
 10
0.377685546875
 20
10.82122124565972
 30
0.0
 10
0.3614366319444444
 20
10.82122124565972
 30
0.0
 10
0.3450927734375
 20
10.82122124565972
 30
0.0
 10
0.3318820529513889
 20
10.80794949001736
 30
0.0
 10
0.3318820529513889
 20
10.79164632161458
 30
0.0
  0
HATCH
  5
50
330
1F
100
AcDbEntity
  8
Top Board
 62
   102
100
AcDbHatch
 10
0.0
 20
0.0
 30
0.0
210
0.0
220
0.0
230
1.0
  2
SOLID
 70
     1
 71
     0
 91
        1
 92
        1
 93
        1
 72
     4
 94
        3
 73
     0
 74
     1
 95
       59
 96
       55
 40
0.0
 40
0.0
 40
0.0
 40
0.0
 40
1.0
 40
1.0
 40
1.0
 40
2.0
 40
2.0
 40
2.0
 40
3.0
 40
3.0
 40
3.0
 40
4.0
 40
4.0
 40
4.0
 40
5.0
 40
5.0
 40
5.0
 40
6.0
 40
6.0
 40
6.0
 40
7.0
 40
7.0
 40
7.0
 40
8.0
 40
8.0
 40
8.0
 40
9.0
 40
9.0
 40
9.0
 40
10.0
 40
10.0
 40
10.0
 40
11.0
 40
11.0
 40
11.0
 40
12.0
 40
12.0
 40
12.0
 40
13.0
 40
13.0
 40
13.0
 40
14.0
 40
14.0
 40
14.0
 40
15.0
 40
15.0
 40
15.0
 40
16.0
 40
16.0
 40
16.0
 40
17.0
 40
17.0
 40
17.0
 40
18.0
 40
18.0
 40
18.0
 40
18.0
 10
0.3318820529513889
 20
10.79164632161458
 10
0.3318820529513889
 20
10.78763156467014
 10
0.3326958550347222
 20
10.7838134765625
 10
0.3341471354166666
 20
10.78032769097222
 10
0.3341471354166666
 20
10.78032769097222
 10
0.2966851128472222
 20
10.74920654296875
 10
0.2966851128472222
 20
10.74920654296875
 10
0.2966851128472222
 20
10.74920654296875
 10
0.2446831597222222
 20
10.74920654296875
 10
0.2446831597222222
 20
10.74920654296875
 10
0.2446831597222222
 20
10.74920654296875
 10
0.2446831597222222
 20
10.78021240234375
 10
0.2446831597222222
 20
10.78021240234375
 10
0.2446831597222222
 20
10.78021240234375
 10
0.2508680555555555
 20
10.78021240234375
 10
0.2508680555555555
 20
10.78021240234375
 10
0.2508680555555555
 20
10.78021240234375
 10
0.2508680555555555
 20
10.82383219401042
 10
0.2508680555555555
 20
10.82383219401042
 10
0.2508680555555555
 20
10.82383219401042
 10
0.2211371527777778
 20
10.82383219401042
 10
0.2211371527777778
 20
10.82383219401042
 10
0.2211371527777778
 20
10.82383219401042
 10
0.2211371527777778
 20
10.78021240234375
 10
0.2211371527777778
 20
10.78021240234375
 10
0.2211371527777778
 20
10.78021240234375
 10
0.2273220486111111
 20
10.78021240234375
 10
0.2273220486111111
 20
10.78021240234375
 10
0.2273220486111111
 20
10.78021240234375
 10
0.2273220486111111
 20
10.74052598741319
 10
0.2273220486111111
 20
10.74052598741319
 10
0.2273220486111111
 20
10.73573133680556
 10
0.2312147352430556
 20
10.73184543185764
 10
0.2360026041666667
 20
10.73184543185764
 10
0.2360026041666667
 20
10.73184543185764
 10
0.2998182508680555
 20
10.73184543185764
 10
0.2998182508680555
 20
10.73184543185764
 10
0.3018391927083333
 20
10.73184543185764
 10
0.3038058810763889
 20
10.73255750868056
 10
0.3053656684027777
 20
10.73384602864583
 10
0.3053656684027777
 20
10.73384602864583
 10
0.3452690972222222
 20
10.76698811848958
 10
0.3452690972222222
 20
10.76698811848958
 10
0.3499213324652777
 20
10.76395670572917
 10
0.3554551866319444
 20
10.76215955946181
 10
0.3614366319444444
 20
10.76215955946181
 10
0.377685546875
 20
10.76215955946181
 10
0.3909369574652777
 20
10.77532958984375
 10
0.3909369574652777
 20
10.79164632161458
 10
0.3909369574652777
 20
10.80794949001736
 10
0.377685546875
 20
10.82122124565972
 10
0.3614366319444444
 20
10.82122124565972
 10
0.3450927734375
 20
10.82122124565972
 10
0.3318820529513889
 20
10.80794949001736
 10
0.3318820529513889
 20
10.79164632161458
 97
        0
 75
     2
 76
     1
 98
        0
  0
SPLINE
  5
51
330
1F
100
AcDbEntity
  8
Top Board
370
     0
100
AcDbSpline
210
0.0
220
0.0
230
1.0
 70
    11
 71
     3
 72
    59
 73
    55
 74
     0
 42
0.0000000001
 43
0.0000000001
 40
0.0
 40
0.0
 40
0.0
 40
0.0
 40
1.0
 40
1.0
 40
1.0
 40
2.0
 40
2.0
 40
2.0
 40
3.0
 40
3.0
 40
3.0
 40
4.0
 40
4.0
 40
4.0
 40
5.0
 40
5.0
 40
5.0
 40
6.0
 40
6.0
 40
6.0
 40
7.0
 40
7.0
 40
7.0
 40
8.0
 40
8.0
 40
8.0
 40
9.0
 40
9.0
 40
9.0
 40
10.0
 40
10.0
 40
10.0
 40
11.0
 40
11.0
 40
11.0
 40
12.0
 40
12.0
 40
12.0
 40
13.0
 40
13.0
 40
13.0
 40
14.0
 40
14.0
 40
14.0
 40
15.0
 40
15.0
 40
15.0
 40
16.0
 40
16.0
 40
16.0
 40
17.0
 40
17.0
 40
17.0
 40
18.0
 40
18.0
 40
18.0
 40
18.0
 10
0.3043077256944444
 20
10.63640001085069
 30
0.0
 10
0.3029513888888889
 20
10.63722737630208
 30
0.0
 10
0.3014051649305555
 20
10.63766140407986
 30
0.0
 10
0.2998182508680555
 20
10.63766140407986
 30
0.0
 10
0.2998182508680555
 20
10.63766140407986
 30
0.0
 10
0.1858995225694444
 20
10.63766140407986
 30
0.0
 10
0.1858995225694444
 20
10.63766140407986
 30
0.0
 10
0.1811116536458333
 20
10.63766140407986
 30
0.0
 10
0.1772189670138889
 20
10.63376871744792
 30
0.0
 10
0.1772189670138889
 20
10.62898084852431
 30
0.0
 10
0.1772189670138889
 20
10.62898084852431
 30
0.0
 10
0.1772189670138889
 20
10.51983642578125
 30
0.0
 10
0.1772189670138889
 20
10.51983642578125
 30
0.0
 10
0.1772189670138889
 20
10.51983642578125
 30
0.0
 10
0.1710476345486111
 20
10.51983642578125
 30
0.0
 10
0.1710476345486111
 20
10.51983642578125
 30
0.0
 10
0.1710476345486111
 20
10.51983642578125
 30
0.0
 10
0.1710476345486111
 20
10.47621663411458
 30
0.0
 10
0.1710476345486111
 20
10.47621663411458
 30
0.0
 10
0.1710476345486111
 20
10.47621663411458
 30
0.0
 10
0.2007649739583333
 20
10.47621663411458
 30
0.0
 10
0.2007649739583333
 20
10.47621663411458
 30
0.0
 10
0.2007649739583333
 20
10.47621663411458
 30
0.0
 10
0.2007649739583333
 20
10.51983642578125
 30
0.0
 10
0.2007649739583333
 20
10.51983642578125
 30
0.0
 10
0.2007649739583333
 20
10.51983642578125
 30
0.0
 10
0.194580078125
 20
10.51983642578125
 30
0.0
 10
0.194580078125
 20
10.51983642578125
 30
0.0
 10
0.194580078125
 20
10.51983642578125
 30
0.0
 10
0.194580078125
 20
10.62030029296875
 30
0.0
 10
0.194580078125
 20
10.62030029296875
 30
0.0
 10
0.194580078125
 20
10.62030029296875
 30
0.0
 10
0.2973904079861111
 20
10.62030029296875
 30
0.0
 10
0.2973904079861111
 20
10.62030029296875
 30
0.0
 10
0.2973904079861111
 20
10.62030029296875
 30
0.0
 10
0.3328586154513889
 20
10.59882948133681
 30
0.0
 10
0.3328586154513889
 20
10.59882948133681
 30
0.0
 10
0.332275390625
 20
10.59652370876736
 30
0.0
 10
0.3318820529513889
 20
10.59413655598958
 30
0.0
 10
0.3318820529513889
 20
10.59165445963542
 30
0.0
 10
0.3318820529513889
 20
10.57533772786458
 30
0.0
 10
0.3450927734375
 20
10.56216769748264
 30
0.0
 10
0.3614366319444444
 20
10.56216769748264
 30
0.0
 10
0.377685546875
 20
10.56216769748264
 30
0.0
 10
0.3909369574652777
 20
10.57533772786458
 30
0.0
 10
0.3909369574652777
 20
10.59165445963542
 30
0.0
 10
0.3909369574652777
 20
10.60795762803819
 30
0.0
 10
0.377685546875
 20
10.62123616536458
 30
0.0
 10
0.3614366319444444
 20
10.62123616536458
 30
0.0
 10
0.3538953993055555
 20
10.62123616536458
 30
0.0
 10
0.3470865885416666
 20
10.61832004123264
 30
0.0
 10
0.3418646918402777
 20
10.61366780598958
 30
0.0
 10
0.3418646918402777
 20
10.61366780598958
 30
0.0
 10
0.3043077256944444
 20
10.63640001085069
 30
0.0
 10
0.3043077256944444
 20
10.63640001085069
 30
0.0
  0
HATCH
  5
52
330
1F
100
AcDbEntity
  8
Top Board
 62
   102
100
AcDbHatch
 10
0.0
 20
0.0
 30
0.0
210
0.0
220
0.0
230
1.0
  2
SOLID
 70
     1
 71
     0
 91
        1
 92
        1
 93
        1
 72
     4
 94
        3
 73
     0
 74
     1
 95
       59
 96
       55
 40
0.0
 40
0.0
 40
0.0
 40
0.0
 40
1.0
 40
1.0
 40
1.0
 40
2.0
 40
2.0
 40
2.0
 40
3.0
 40
3.0
 40
3.0
 40
4.0
 40
4.0
 40
4.0
 40
5.0
 40
5.0
 40
5.0
 40
6.0
 40
6.0
 40
6.0
 40
7.0
 40
7.0
 40
7.0
 40
8.0
 40
8.0
 40
8.0
 40
9.0
 40
9.0
 40
9.0
 40
10.0
 40
10.0
 40
10.0
 40
11.0
 40
11.0
 40
11.0
 40
12.0
 40
12.0
 40
12.0
 40
13.0
 40
13.0
 40
13.0
 40
14.0
 40
14.0
 40
14.0
 40
15.0
 40
15.0
 40
15.0
 40
16.0
 40
16.0
 40
16.0
 40
17.0
 40
17.0
 40
17.0
 40
18.0
 40
18.0
 40
18.0
 40
18.0
 10
0.3043077256944444
 20
10.63640001085069
 10
0.3029513888888889
 20
10.63722737630208
 10
0.3014051649305555
 20
10.63766140407986
 10
0.2998182508680555
 20
10.63766140407986
 10
0.2998182508680555
 20
10.63766140407986
 10
0.1858995225694444
 20
10.63766140407986
 10
0.1858995225694444
 20
10.63766140407986
 10
0.1811116536458333
 20
10.63766140407986
 10
0.1772189670138889
 20
10.63376871744792
 10
0.1772189670138889
 20
10.62898084852431
 10
0.1772189670138889
 20
10.62898084852431
 10
0.1772189670138889
 20
10.51983642578125
 10
0.1772189670138889
 20
10.51983642578125
 10
0.1772189670138889
 20
10.51983642578125
 10
0.1710476345486111
 20
10.51983642578125
 10
0.1710476345486111
 20
10.51983642578125
 10
0.1710476345486111
 20
10.51983642578125
 10
0.1710476345486111
 20
10.47621663411458
 10
0.1710476345486111
 20
10.47621663411458
 10
0.1710476345486111
 20
10.47621663411458
 10
0.2007649739583333
 20
10.47621663411458
 10
0.2007649739583333
 20
10.47621663411458
 10
0.2007649739583333
 20
10.47621663411458
 10
0.2007649739583333
 20
10.51983642578125
 10
0.2007649739583333
 20
10.51983642578125
 10
0.2007649739583333
 20
10.51983642578125
 10
0.194580078125
 20
10.51983642578125
 10
0.194580078125
 20
10.51983642578125
 10
0.194580078125
 20
10.51983642578125
 10
0.194580078125
 20
10.62030029296875
 10
0.194580078125
 20
10.62030029296875
 10
0.194580078125
 20
10.62030029296875
 10
0.2973904079861111
 20
10.62030029296875
 10
0.2973904079861111
 20
10.62030029296875
 10
0.2973904079861111
 20
10.62030029296875
 10
0.3328586154513889
 20
10.59882948133681
 10
0.3328586154513889
 20
10.59882948133681
 10
0.332275390625
 20
10.59652370876736
 10
0.3318820529513889
 20
10.59413655598958
 10
0.3318820529513889
 20
10.59165445963542
 10
0.3318820529513889
 20
10.57533772786458
 10
0.3450927734375
 20
10.56216769748264
 10
0.3614366319444444
 20
10.56216769748264
 10
0.377685546875
 20
10.56216769748264
 10
0.3909369574652777
 20
10.57533772786458
 10
0.3909369574652777
 20
10.59165445963542
 10
0.3909369574652777
 20
10.60795762803819
 10
0.377685546875
 20
10.62123616536458
 10
0.3614366319444444
 20
10.62123616536458
 10
0.3538953993055555
 20
10.62123616536458
 10
0.3470865885416666
 20
10.61832004123264
 10
0.3418646918402777
 20
10.61366780598958
 10
0.3418646918402777
 20
10.61366780598958
 10
0.3043077256944444
 20
10.63640001085069
 10
0.3043077256944444
 20
10.63640001085069
 97
        0
 75
     2
 76
     1
 98
        0
  0
SPLINE
  5
53
330
1F
100
AcDbEntity
  8
Top Board
370
     0
100
AcDbSpline
210
0.0
220
0.0
230
1.0
 70
    11
 71
     3
 72
    59
 73
    55
 74
     0
 42
0.0000000001
 43
0.0000000001
 40
0.0
 40
0.0
 40
0.0
 40
0.0
 40
1.0
 40
1.0
 40
1.0
 40
2.0
 40
2.0
 40
2.0
 40
3.0
 40
3.0
 40
3.0
 40
4.0
 40
4.0
 40
4.0
 40
5.0
 40
5.0
 40
5.0
 40
6.0
 40
6.0
 40
6.0
 40
7.0
 40
7.0
 40
7.0
 40
8.0
 40
8.0
 40
8.0
 40
9.0
 40
9.0
 40
9.0
 40
10.0
 40
10.0
 40
10.0
 40
11.0
 40
11.0
 40
11.0
 40
12.0
 40
12.0
 40
12.0
 40
13.0
 40
13.0
 40
13.0
 40
14.0
 40
14.0
 40
14.0
 40
15.0
 40
15.0
 40
15.0
 40
16.0
 40
16.0
 40
16.0
 40
17.0
 40
17.0
 40
17.0
 40
18.0
 40
18.0
 40
18.0
 40
18.0
 10
0.3067220052083333
 20
10.57758924696181
 30
0.0
 10
0.3050808376736111
 20
10.57974582248264
 30
0.0
 10
0.3025173611111111
 20
10.58100721571181
 30
0.0
 10
0.2998182508680555
 20
10.58100721571181
 30
0.0
 10
0.2998182508680555
 20
10.58100721571181
 30
0.0
 10
0.2360026041666667
 20
10.58100721571181
 30
0.0
 10
0.2360026041666667
 20
10.58100721571181
 30
0.0
 10
0.2312147352430556
 20
10.58100721571181
 30
0.0
 10
0.2273220486111111
 20
10.57711452907986
 30
0.0
 10
0.2273220486111111
 20
10.57232666015625
 30
0.0
 10
0.2273220486111111
 20
10.57232666015625
 30
0.0
 10
0.2273220486111111
 20
10.51983642578125
 30
0.0
 10
0.2273220486111111
 20
10.51983642578125
 30
0.0
 10
0.2273220486111111
 20
10.51983642578125
 30
0.0
 10
0.2211371527777778
 20
10.51983642578125
 30
0.0
 10
0.2211371527777778
 20
10.51983642578125
 30
0.0
 10
0.2211371527777778
 20
10.51983642578125
 30
0.0
 10
0.2211371527777778
 20
10.47621663411458
 30
0.0
 10
0.2211371527777778
 20
10.47621663411458
 30
0.0
 10
0.2211371527777778
 20
10.47621663411458
 30
0.0
 10
0.2508680555555555
 20
10.47621663411458
 30
0.0
 10
0.2508680555555555
 20
10.47621663411458
 30
0.0
 10
0.2508680555555555
 20
10.47621663411458
 30
0.0
 10
0.2508680555555555
 20
10.51983642578125
 30
0.0
 10
0.2508680555555555
 20
10.51983642578125
 30
0.0
 10
0.2508680555555555
 20
10.51983642578125
 30
0.0
 10
0.2446831597222222
 20
10.51983642578125
 30
0.0
 10
0.2446831597222222
 20
10.51983642578125
 30
0.0
 10
0.2446831597222222
 20
10.51983642578125
 30
0.0
 10
0.2446831597222222
 20
10.56364610460069
 30
0.0
 10
0.2446831597222222
 20
10.56364610460069
 30
0.0
 10
0.2446831597222222
 20
10.56364610460069
 30
0.0
 10
0.2955186631944444
 20
10.56364610460069
 30
0.0
 10
0.2955186631944444
 20
10.56364610460069
 30
0.0
 10
0.2955186631944444
 20
10.56364610460069
 30
0.0
 10
0.3374294704861111
 20
10.50876871744792
 30
0.0
 10
0.3374294704861111
 20
10.50876871744792
 30
0.0
 10
0.3339708116319444
 20
10.50392659505208
 30
0.0
 10
0.3318820529513889
 20
10.49804009331597
 30
0.0
 10
0.3318820529513889
 20
10.49163818359375
 30
0.0
 10
0.3318820529513889
 20
10.47532145182292
 30
0.0
 10
0.3450927734375
 20
10.46215142144097
 30
0.0
 10
0.3614366319444444
 20
10.46215142144097
 30
0.0
 10
0.377685546875
 20
10.46215142144097
 30
0.0
 10
0.3909369574652777
 20
10.47532145182292
 30
0.0
 10
0.3909369574652777
 20
10.49163818359375
 30
0.0
 10
0.3909369574652777
 20
10.50794135199653
 30
0.0
 10
0.377685546875
 20
10.52121988932292
 30
0.0
 10
0.3614366319444444
 20
10.52121988932292
 30
0.0
 10
0.3578287760416666
 20
10.52121988932292
 30
0.0
 10
0.3544243706597222
 20
10.52047390407986
 30
0.0
 10
0.3512369791666666
 20
10.51929389105903
 30
0.0
 10
0.3512369791666666
 20
10.51929389105903
 30
0.0
 10
0.3067220052083333
 20
10.57758924696181
 30
0.0
 10
0.3067220052083333
 20
10.57758924696181
 30
0.0
  0
HATCH
  5
54
330
1F
100
AcDbEntity
  8
Top Board
 62
   102
100
AcDbHatch
 10
0.0
 20
0.0
 30
0.0
210
0.0
220
0.0
230
1.0
  2
SOLID
 70
     1
 71
     0
 91
        1
 92
        1
 93
        1
 72
     4
 94
        3
 73
     0
 74
     1
 95
       59
 96
       55
 40
0.0
 40
0.0
 40
0.0
 40
0.0
 40
1.0
 40
1.0
 40
1.0
 40
2.0
 40
2.0
 40
2.0
 40
3.0
 40
3.0
 40
3.0
 40
4.0
 40
4.0
 40
4.0
 40
5.0
 40
5.0
 40
5.0
 40
6.0
 40
6.0
 40
6.0
 40
7.0
 40
7.0
 40
7.0
 40
8.0
 40
8.0
 40
8.0
 40
9.0
 40
9.0
 40
9.0
 40
10.0
 40
10.0
 40
10.0
 40
11.0
 40
11.0
 40
11.0
 40
12.0
 40
12.0
 40
12.0
 40
13.0
 40
13.0
 40
13.0
 40
14.0
 40
14.0
 40
14.0
 40
15.0
 40
15.0
 40
15.0
 40
16.0
 40
16.0
 40
16.0
 40
17.0
 40
17.0
 40
17.0
 40
18.0
 40
18.0
 40
18.0
 40
18.0
 10
0.3067220052083333
 20
10.57758924696181
 10
0.3050808376736111
 20
10.57974582248264
 10
0.3025173611111111
 20
10.58100721571181
 10
0.2998182508680555
 20
10.58100721571181
 10
0.2998182508680555
 20
10.58100721571181
 10
0.2360026041666667
 20
10.58100721571181
 10
0.2360026041666667
 20
10.58100721571181
 10
0.2312147352430556
 20
10.58100721571181
 10
0.2273220486111111
 20
10.57711452907986
 10
0.2273220486111111
 20
10.57232666015625
 10
0.2273220486111111
 20
10.57232666015625
 10
0.2273220486111111
 20
10.51983642578125
 10
0.2273220486111111
 20
10.51983642578125
 10
0.2273220486111111
 20
10.51983642578125
 10
0.2211371527777778
 20
10.51983642578125
 10
0.2211371527777778
 20
10.51983642578125
 10
0.2211371527777778
 20
10.51983642578125
 10
0.2211371527777778
 20
10.47621663411458
 10
0.2211371527777778
 20
10.47621663411458
 10
0.2211371527777778
 20
10.47621663411458
 10
0.2508680555555555
 20
10.47621663411458
 10
0.2508680555555555
 20
10.47621663411458
 10
0.2508680555555555
 20
10.47621663411458
 10
0.2508680555555555
 20
10.51983642578125
 10
0.2508680555555555
 20
10.51983642578125
 10
0.2508680555555555
 20
10.51983642578125
 10
0.2446831597222222
 20
10.51983642578125
 10
0.2446831597222222
 20
10.51983642578125
 10
0.2446831597222222
 20
10.51983642578125
 10
0.2446831597222222
 20
10.56364610460069
 10
0.2446831597222222
 20
10.56364610460069
 10
0.2446831597222222
 20
10.56364610460069
 10
0.2955186631944444
 20
10.56364610460069
 10
0.2955186631944444
 20
10.56364610460069
 10
0.2955186631944444
 20
10.56364610460069
 10
0.3374294704861111
 20
10.50876871744792
 10
0.3374294704861111
 20
10.50876871744792
 10
0.3339708116319444
 20
10.50392659505208
 10
0.3318820529513889
 20
10.49804009331597
 10
0.3318820529513889
 20
10.49163818359375
 10
0.3318820529513889
 20
10.47532145182292
 10
0.3450927734375
 20
10.46215142144097
 10
0.3614366319444444
 20
10.46215142144097
 10
0.377685546875
 20
10.46215142144097
 10
0.3909369574652777
 20
10.47532145182292
 10
0.3909369574652777
 20
10.49163818359375
 10
0.3909369574652777
 20
10.50794135199653
 10
0.377685546875
 20
10.52121988932292
 10
0.3614366319444444
 20
10.52121988932292
 10
0.3578287760416666
 20
10.52121988932292
 10
0.3544243706597222
 20
10.52047390407986
 10
0.3512369791666666
 20
10.51929389105903
 10
0.3512369791666666
 20
10.51929389105903
 10
0.3067220052083333
 20
10.57758924696181
 10
0.3067220052083333
 20
10.57758924696181
 97
        0
 75
     2
 76
     1
 98
        0
  0
POLYLINE
  5
55
330
1F
100
AcDbEntity
  8
Top Board
370
     0
100
AcDb2dPolyline
 66
     1
 10
0.0
 20
0.0
 30
0.0
  0
VERTEX
  5
56
330
55
100
AcDbEntity
  8
Top Board
370
     0
100
AcDbVertex
100
AcDb2dVertex
 10
0.228271484375
 20
10.93926323784722
 30
0.0
  0
VERTEX
  5
57
330
55
100
AcDbEntity
  8
Top Board
370
     0
100
AcDbVertex
100
AcDb2dVertex
 10
0.2462565104166667
 20
10.93926323784722
 30
0.0
  0
VERTEX
  5
58
330
55
100
AcDbEntity
  8
Top Board
370
     0
100
AcDbVertex
100
AcDb2dVertex
 10
0.2462565104166667
 20
10.93663194444444
 30
0.0
  0
VERTEX
  5
59
330
55
100
AcDbEntity
  8
Top Board
370
     0
100
AcDbVertex
100
AcDb2dVertex
 10
0.2844509548611111
 20
10.93663194444444
 30
0.0
  0
VERTEX
  5
5A
330
55
100
AcDbEntity
  8
Top Board
370
     0
100
AcDbVertex
100
AcDb2dVertex
 10
0.2844509548611111
 20
10.95925564236111
 30
0.0
  0
VERTEX
  5
5B
330
55
100
AcDbEntity
  8
Top Board
370
     0
100
AcDbVertex
100
AcDb2dVertex
 10
0.2462565104166667
 20
10.95925564236111
 30
0.0
  0
VERTEX
  5
5C
330
55
100
AcDbEntity
  8
Top Board
370
     0
100
AcDbVertex
100
AcDb2dVertex
 10
0.2462565104166667
 20
10.95662434895833
 30
0.0
  0
VERTEX
  5
5D
330
55
100
AcDbEntity
  8
Top Board
370
     0
100
AcDbVertex
100
AcDb2dVertex
 10
0.228271484375
 20
10.95662434895833
 30
0.0
  0
VERTEX
  5
5E
330
55
100
AcDbEntity
  8
Top Board
370
     0
100
AcDbVertex
100
AcDb2dVertex
 10
0.228271484375
 20
10.95925564236111
 30
0.0
  0
VERTEX
  5
5F
330
55
100
AcDbEntity
  8
Top Board
370
     0
100
AcDbVertex
100
AcDb2dVertex
 10
0.1738823784722222
 20
10.95925564236111
 30
0.0
  0
VERTEX
  5
60
330
55
100
AcDbEntity
  8
Top Board
370
     0
100
AcDbVertex
100
AcDb2dVertex
 10
0.1738823784722222
 20
10.92453342013889
 30
0.0
  0
VERTEX
  5
61
330
55
100
AcDbEntity
  8
Top Board
370
     0
100
AcDbVertex
100
AcDb2dVertex
 10
0.228271484375
 20
10.92453342013889
 30
0.0
  0
VERTEX
  5
62
330
55
100
AcDbEntity
  8
Top Board
370
     0
100
AcDbVertex
100
AcDb2dVertex
 10
0.228271484375
 20
10.93926323784722
 30
0.0
  0
SEQEND
  5
63
330
55
100
AcDbEntity
  8
Top Board
370
     0
  0
HATCH
  5
64
330
1F
100
AcDbEntity
  8
Top Board
 62
   102
100
AcDbHatch
 10
0.0
 20
0.0
 30
0.0
210
0.0
220
0.0
230
1.0
  2
SOLID
 70
     1
 71
     0
 91
        1
 92
        1
 93
       12
 72
     1
 10
0.228271484375
 20
10.93926323784722
 11
0.2462565104166667
 21
10.93926323784722
 72
     1
 10
0.2462565104166667
 20
10.93926323784722
 11
0.2462565104166667
 21
10.93663194444444
 72
     1
 10
0.2462565104166667
 20
10.93663194444444
 11
0.2844509548611111
 21
10.93663194444444
 72
     1
 10
0.2844509548611111
 20
10.93663194444444
 11
0.2844509548611111
 21
10.95925564236111
 72
     1
 10
0.2844509548611111
 20
10.95925564236111
 11
0.2462565104166667
 21
10.95925564236111
 72
     1
 10
0.2462565104166667
 20
10.95925564236111
 11
0.2462565104166667
 21
10.95662434895833
 72
     1
 10
0.2462565104166667
 20
10.95662434895833
 11
0.228271484375
 21
10.95662434895833
 72
     1
 10
0.228271484375
 20
10.95662434895833
 11
0.228271484375
 21
10.95925564236111
 72
     1
 10
0.228271484375
 20
10.95925564236111
 11
0.1738823784722222
 21
10.95925564236111
 72
     1
 10
0.1738823784722222
 20
10.95925564236111
 11
0.1738823784722222
 21
10.92453342013889
 72
     1
 10
0.1738823784722222
 20
10.92453342013889
 11
0.228271484375
 21
10.92453342013889
 72
     1
 10
0.228271484375
 20
10.92453342013889
 11
0.228271484375
 21
10.93926323784722
 97
        0
 75
     2
 76
     1
 98
        0
  0
SPLINE
  5
65
330
1F
100
AcDbEntity
  8
Top Board
370
     0
100
AcDbSpline
210
0.0
220
0.0
230
1.0
 70
    11
 71
     3
 72
    65
 73
    61
 74
     0
 42
0.0000000001
 43
0.0000000001
 40
0.0
 40
0.0
 40
0.0
 40
0.0
 40
1.0
 40
1.0
 40
1.0
 40
2.0
 40
2.0
 40
2.0
 40
3.0
 40
3.0
 40
3.0
 40
4.0
 40
4.0
 40
4.0
 40
5.0
 40
5.0
 40
5.0
 40
6.0
 40
6.0
 40
6.0
 40
7.0
 40
7.0
 40
7.0
 40
8.0
 40
8.0
 40
8.0
 40
9.0
 40
9.0
 40
9.0
 40
10.0
 40
10.0
 40
10.0
 40
11.0
 40
11.0
 40
11.0
 40
12.0
 40
12.0
 40
12.0
 40
13.0
 40
13.0
 40
13.0
 40
14.0
 40
14.0
 40
14.0
 40
15.0
 40
15.0
 40
15.0
 40
16.0
 40
16.0
 40
16.0
 40
17.0
 40
17.0
 40
17.0
 40
18.0
 40
18.0
 40
18.0
 40
19.0
 40
19.0
 40
19.0
 40
20.0
 40
20.0
 40
20.0
 40
20.0
 10
0.1738823784722222
 20
10.84579806857639
 30
0.0
 10
0.1738823784722222
 20
10.84579806857639
 30
0.0
 10
0.228271484375
 20
10.84579806857639
 30
0.0
 10
0.228271484375
 20
10.84579806857639
 30
0.0
 10
0.228271484375
 20
10.84579806857639
 30
0.0
 10
0.228271484375
 20
10.88052029079861
 30
0.0
 10
0.228271484375
 20
10.88052029079861
 30
0.0
 10
0.228271484375
 20
10.88052029079861
 30
0.0
 10
0.1738823784722222
 20
10.88052029079861
 30
0.0
 10
0.1738823784722222
 20
10.88052029079861
 30
0.0
 10
0.1738823784722222
 20
10.88052029079861
 30
0.0
 10
0.1738823784722222
 20
10.87084282769097
 30
0.0
 10
0.1738823784722222
 20
10.87084282769097
 30
0.0
 10
0.1738823784722222
 20
10.87084282769097
 30
0.0
 10
0.1560329861111111
 20
10.87084282769097
 30
0.0
 10
0.1560329861111111
 20
10.87084282769097
 30
0.0
 10
0.1560329861111111
 20
10.87084282769097
 30
0.0
 10
0.1560329861111111
 20
10.88052029079861
 30
0.0
 10
0.1560329861111111
 20
10.88052029079861
 30
0.0
 10
0.1560329861111111
 20
10.88052029079861
 30
0.0
 10
0.1016438802083333
 20
10.88052029079861
 30
0.0
 10
0.1016438802083333
 20
10.88052029079861
 30
0.0
 10
0.1016438802083333
 20
10.88052029079861
 30
0.0
 10
0.1016438802083333
 20
10.87963189019097
 30
0.0
 10
0.1016438802083333
 20
10.87963189019097
 30
0.0
 10
0.1016438802083333
 20
10.87963189019097
 30
0.0
 10
0.0903455946180556
 20
10.88578965928819
 30
0.0
 10
0.0903455946180556
 20
10.88578965928819
 30
0.0
 10
0.0907389322916667
 20
10.88768853081597
 30
0.0
 10
0.0909423828125
 20
10.88964165581597
 30
0.0
 10
0.0909423828125
 20
10.89164903428819
 30
0.0
 10
0.0909423828125
 20
10.90795220269097
 30
0.0
 10
0.0776909722222222
 20
10.92122395833333
 30
0.0
 10
0.0614420572916667
 20
10.92122395833333
 30
0.0
 10
0.0450981987847222
 20
10.92122395833333
 30
0.0
 10
0.0318874782986111
 20
10.90795220269097
 30
0.0
 10
0.0318874782986111
 20
10.89164903428819
 30
0.0
 10
0.0318874782986111
 20
10.87533230251736
 30
0.0
 10
0.0450981987847222
 20
10.86216227213542
 30
0.0
 10
0.0614420572916667
 20
10.86216227213542
 30
0.0
 10
0.0694444444444444
 20
10.86216227213542
 30
0.0
 10
0.0766872829861111
 20
10.86537679036458
 30
0.0
 10
0.0820041232638889
 20
10.87055799696181
 30
0.0
 10
0.0820041232638889
 20
10.87055799696181
 30
0.0
 10
0.1016438802083333
 20
10.85984293619792
 30
0.0
 10
0.1016438802083333
 20
10.85984293619792
 30
0.0
 10
0.1016438802083333
 20
10.85984293619792
 30
0.0
 10
0.1016438802083333
 20
10.84579806857639
 30
0.0
 10
0.1016438802083333
 20
10.84579806857639
 30
0.0
 10
0.1016438802083333
 20
10.84579806857639
 30
0.0
 10
0.1560329861111111
 20
10.84579806857639
 30
0.0
 10
0.1560329861111111
 20
10.84579806857639
 30
0.0
 10
0.1560329861111111
 20
10.84579806857639
 30
0.0
 10
0.1560329861111111
 20
10.85348171657986
 30
0.0
 10
0.1560329861111111
 20
10.85348171657986
 30
0.0
 10
0.1560329861111111
 20
10.85348171657986
 30
0.0
 10
0.1738823784722222
 20
10.85348171657986
 30
0.0
 10
0.1738823784722222
 20
10.85348171657986
 30
0.0
 10
0.1738823784722222
 20
10.85348171657986
 30
0.0
 10
0.1738823784722222
 20
10.84579806857639
 30
0.0
 10
0.1738823784722222
 20
10.84579806857639
 30
0.0
  0
HATCH
  5
66
330
1F
100
AcDbEntity
  8
Top Board
 62
   102
100
AcDbHatch
 10
0.0
 20
0.0
 30
0.0
210
0.0
220
0.0
230
1.0
  2
SOLID
 70
     1
 71
     0
 91
        1
 92
        1
 93
        1
 72
     4
 94
        3
 73
     0
 74
     1
 95
       65
 96
       61
 40
0.0
 40
0.0
 40
0.0
 40
0.0
 40
1.0
 40
1.0
 40
1.0
 40
2.0
 40
2.0
 40
2.0
 40
3.0
 40
3.0
 40
3.0
 40
4.0
 40
4.0
 40
4.0
 40
5.0
 40
5.0
 40
5.0
 40
6.0
 40
6.0
 40
6.0
 40
7.0
 40
7.0
 40
7.0
 40
8.0
 40
8.0
 40
8.0
 40
9.0
 40
9.0
 40
9.0
 40
10.0
 40
10.0
 40
10.0
 40
11.0
 40
11.0
 40
11.0
 40
12.0
 40
12.0
 40
12.0
 40
13.0
 40
13.0
 40
13.0
 40
14.0
 40
14.0
 40
14.0
 40
15.0
 40
15.0
 40
15.0
 40
16.0
 40
16.0
 40
16.0
 40
17.0
 40
17.0
 40
17.0
 40
18.0
 40
18.0
 40
18.0
 40
19.0
 40
19.0
 40
19.0
 40
20.0
 40
20.0
 40
20.0
 40
20.0
 10
0.1738823784722222
 20
10.84579806857639
 10
0.1738823784722222
 20
10.84579806857639
 10
0.228271484375
 20
10.84579806857639
 10
0.228271484375
 20
10.84579806857639
 10
0.228271484375
 20
10.84579806857639
 10
0.228271484375
 20
10.88052029079861
 10
0.228271484375
 20
10.88052029079861
 10
0.228271484375
 20
10.88052029079861
 10
0.1738823784722222
 20
10.88052029079861
 10
0.1738823784722222
 20
10.88052029079861
 10
0.1738823784722222
 20
10.88052029079861
 10
0.1738823784722222
 20
10.87084282769097
 10
0.1738823784722222
 20
10.87084282769097
 10
0.1738823784722222
 20
10.87084282769097
 10
0.1560329861111111
 20
10.87084282769097
 10
0.1560329861111111
 20
10.87084282769097
 10
0.1560329861111111
 20
10.87084282769097
 10
0.1560329861111111
 20
10.88052029079861
 10
0.1560329861111111
 20
10.88052029079861
 10
0.1560329861111111
 20
10.88052029079861
 10
0.1016438802083333
 20
10.88052029079861
 10
0.1016438802083333
 20
10.88052029079861
 10
0.1016438802083333
 20
10.88052029079861
 10
0.1016438802083333
 20
10.87963189019097
 10
0.1016438802083333
 20
10.87963189019097
 10
0.1016438802083333
 20
10.87963189019097
 10
0.0903455946180556
 20
10.88578965928819
 10
0.0903455946180556
 20
10.88578965928819
 10
0.0907389322916667
 20
10.88768853081597
 10
0.0909423828125
 20
10.88964165581597
 10
0.0909423828125
 20
10.89164903428819
 10
0.0909423828125
 20
10.90795220269097
 10
0.0776909722222222
 20
10.92122395833333
 10
0.0614420572916667
 20
10.92122395833333
 10
0.0450981987847222
 20
10.92122395833333
 10
0.0318874782986111
 20
10.90795220269097
 10
0.0318874782986111
 20
10.89164903428819
 10
0.0318874782986111
 20
10.87533230251736
 10
0.0450981987847222
 20
10.86216227213542
 10
0.0614420572916667
 20
10.86216227213542
 10
0.0694444444444444
 20
10.86216227213542
 10
0.0766872829861111
 20
10.86537679036458
 10
0.0820041232638889
 20
10.87055799696181
 10
0.0820041232638889
 20
10.87055799696181
 10
0.1016438802083333
 20
10.85984293619792
 10
0.1016438802083333
 20
10.85984293619792
 10
0.1016438802083333
 20
10.85984293619792
 10
0.1016438802083333
 20
10.84579806857639
 10
0.1016438802083333
 20
10.84579806857639
 10
0.1016438802083333
 20
10.84579806857639
 10
0.1560329861111111
 20
10.84579806857639
 10
0.1560329861111111
 20
10.84579806857639
 10
0.1560329861111111
 20
10.84579806857639
 10
0.1560329861111111
 20
10.85348171657986
 10
0.1560329861111111
 20
10.85348171657986
 10
0.1560329861111111
 20
10.85348171657986
 10
0.1738823784722222
 20
10.85348171657986
 10
0.1738823784722222
 20
10.85348171657986
 10
0.1738823784722222
 20
10.85348171657986
 10
0.1738823784722222
 20
10.84579806857639
 10
0.1738823784722222
 20
10.84579806857639
 97
        0
 75
     2
 76
     1
 98
        0
  0
SPLINE
  5
67
330
1F
100
AcDbEntity
  8
Top Board
370
     0
100
AcDbSpline
210
0.0
220
0.0
230
1.0
 70
    11
 71
     3
 72
    38
 73
    34
 74
     0
 42
0.0000000001
 43
0.0000000001
 40
0.0
 40
0.0
 40
0.0
 40
0.0
 40
1.0
 40
1.0
 40
1.0
 40
2.0
 40
2.0
 40
2.0
 40
3.0
 40
3.0
 40
3.0
 40
4.0
 40
4.0
 40
4.0
 40
5.0
 40
5.0
 40
5.0
 40
6.0
 40
6.0
 40
6.0
 40
7.0
 40
7.0
 40
7.0
 40
8.0
 40
8.0
 40
8.0
 40
9.0
 40
9.0
 40
9.0
 40
10.0
 40
10.0
 40
10.0
 40
11.0
 40
11.0
 40
11.0
 40
11.0
 10
0.1209309895833333
 20
10.50041368272569
 30
0.0
 10
0.1209309895833333
 20
10.50041368272569
 30
0.0
 10
0.0894775390625
 20
10.50038655598958
 30
0.0
 10
0.0894775390625
 20
10.50038655598958
 30
0.0
 10
0.0857204861111111
 20
10.51240370008681
 30
0.0
 10
0.0746392144097222
 20
10.52121988932292
 30
0.0
 10
0.0614420572916667
 20
10.52121988932292
 30
0.0
 10
0.0450981987847222
 20
10.52121988932292
 30
0.0
 10
0.0318874782986111
 20
10.50794135199653
 30
0.0
 10
0.0318874782986111
 20
10.49163818359375
 30
0.0
 10
0.0318874782986111
 20
10.47532145182292
 30
0.0
 10
0.0450981987847222
 20
10.46215142144097
 30
0.0
 10
0.0614420572916667
 20
10.46215142144097
 30
0.0
 10
0.0746799045138889
 20
10.46215142144097
 30
0.0
 10
0.0858018663194444
 20
10.47095404730903
 30
0.0
 10
0.0895182291666667
 20
10.48302544487847
 30
0.0
 10
0.0895182291666667
 20
10.48302544487847
 30
0.0
 10
0.1209309895833333
 20
10.48306613498264
 30
0.0
 10
0.1209309895833333
 20
10.48306613498264
 30
0.0
 10
0.1209309895833333
 20
10.48306613498264
 30
0.0
 10
0.1209309895833333
 20
10.47621663411458
 30
0.0
 10
0.1209309895833333
 20
10.47621663411458
 30
0.0
 10
0.1209309895833333
 20
10.47621663411458
 30
0.0
 10
0.1506618923611111
 20
10.47621663411458
 30
0.0
 10
0.1506618923611111
 20
10.47621663411458
 30
0.0
 10
0.1506618923611111
 20
10.47621663411458
 30
0.0
 10
0.1506618923611111
 20
10.51983642578125
 30
0.0
 10
0.1506618923611111
 20
10.51983642578125
 30
0.0
 10
0.1506618923611111
 20
10.51983642578125
 30
0.0
 10
0.1209309895833333
 20
10.51983642578125
 30
0.0
 10
0.1209309895833333
 20
10.51983642578125
 30
0.0
 10
0.1209309895833333
 20
10.51983642578125
 30
0.0
 10
0.1209309895833333
 20
10.50041368272569
 30
0.0
 10
0.1209309895833333
 20
10.50041368272569
 30
0.0
  0
HATCH
  5
68
330
1F
100
AcDbEntity
  8
Top Board
 62
   102
100
AcDbHatch
 10
0.0
 20
0.0
 30
0.0
210
0.0
220
0.0
230
1.0
  2
SOLID
 70
     1
 71
     0
 91
        1
 92
        1
 93
        1
 72
     4
 94
        3
 73
     0
 74
     1
 95
       38
 96
       34
 40
0.0
 40
0.0
 40
0.0
 40
0.0
 40
1.0
 40
1.0
 40
1.0
 40
2.0
 40
2.0
 40
2.0
 40
3.0
 40
3.0
 40
3.0
 40
4.0
 40
4.0
 40
4.0
 40
5.0
 40
5.0
 40
5.0
 40
6.0
 40
6.0
 40
6.0
 40
7.0
 40
7.0
 40
7.0
 40
8.0
 40
8.0
 40
8.0
 40
9.0
 40
9.0
 40
9.0
 40
10.0
 40
10.0
 40
10.0
 40
11.0
 40
11.0
 40
11.0
 40
11.0
 10
0.1209309895833333
 20
10.50041368272569
 10
0.1209309895833333
 20
10.50041368272569
 10
0.0894775390625
 20
10.50038655598958
 10
0.0894775390625
 20
10.50038655598958
 10
0.0857204861111111
 20
10.51240370008681
 10
0.0746392144097222
 20
10.52121988932292
 10
0.0614420572916667
 20
10.52121988932292
 10
0.0450981987847222
 20
10.52121988932292
 10
0.0318874782986111
 20
10.50794135199653
 10
0.0318874782986111
 20
10.49163818359375
 10
0.0318874782986111
 20
10.47532145182292
 10
0.0450981987847222
 20
10.46215142144097
 10
0.0614420572916667
 20
10.46215142144097
 10
0.0746799045138889
 20
10.46215142144097
 10
0.0858018663194444
 20
10.47095404730903
 10
0.0895182291666667
 20
10.48302544487847
 10
0.0895182291666667
 20
10.48302544487847
 10
0.1209309895833333
 20
10.48306613498264
 10
0.1209309895833333
 20
10.48306613498264
 10
0.1209309895833333
 20
10.48306613498264
 10
0.1209309895833333
 20
10.47621663411458
 10
0.1209309895833333
 20
10.47621663411458
 10
0.1209309895833333
 20
10.47621663411458
 10
0.1506618923611111
 20
10.47621663411458
 10
0.1506618923611111
 20
10.47621663411458
 10
0.1506618923611111
 20
10.47621663411458
 10
0.1506618923611111
 20
10.51983642578125
 10
0.1506618923611111
 20
10.51983642578125
 10
0.1506618923611111
 20
10.51983642578125
 10
0.1209309895833333
 20
10.51983642578125
 10
0.1209309895833333
 20
10.51983642578125
 10
0.1209309895833333
 20
10.51983642578125
 10
0.1209309895833333
 20
10.50041368272569
 10
0.1209309895833333
 20
10.50041368272569
 97
        0
 75
     2
 76
     1
 98
        0
  0
SPLINE
  5
69
330
1F
100
AcDbEntity
  8
Top Board
370
     0
100
AcDbSpline
210
0.0
220
0.0
230
1.0
 70
    11
 71
     3
 72
    47
 73
    43
 74
     0
 42
0.0000000001
 43
0.0000000001
 40
0.0
 40
0.0
 40
0.0
 40
0.0
 40
1.0
 40
1.0
 40
1.0
 40
2.0
 40
2.0
 40
2.0
 40
3.0
 40
3.0
 40
3.0
 40
4.0
 40
4.0
 40
4.0
 40
5.0
 40
5.0
 40
5.0
 40
6.0
 40
6.0
 40
6.0
 40
7.0
 40
7.0
 40
7.0
 40
8.0
 40
8.0
 40
8.0
 40
9.0
 40
9.0
 40
9.0
 40
10.0
 40
10.0
 40
10.0
 40
11.0
 40
11.0
 40
11.0
 40
12.0
 40
12.0
 40
12.0
 40
13.0
 40
13.0
 40
13.0
 40
14.0
 40
14.0
 40
14.0
 40
14.0
 10
0.1209309895833333
 20
10.78021240234375
 30
0.0
 10
0.1209309895833333
 20
10.78021240234375
 30
0.0
 10
0.1271158854166667
 20
10.78021240234375
 30
0.0
 10
0.1271158854166667
 20
10.78021240234375
 30
0.0
 10
0.1271158854166667
 20
10.78021240234375
 30
0.0
 10
0.1271158854166667
 20
10.60037570529514
 30
0.0
 10
0.1271158854166667
 20
10.60037570529514
 30
0.0
 10
0.1271158854166667
 20
10.60037570529514
 30
0.0
 10
0.0894775390625
 20
10.60037570529514
 30
0.0
 10
0.0894775390625
 20
10.60037570529514
 30
0.0
 10
0.0857340494791667
 20
10.61240641276042
 30
0.0
 10
0.0746527777777778
 20
10.62123616536458
 30
0.0
 10
0.0614420572916667
 20
10.62123616536458
 30
0.0
 10
0.0450981987847222
 20
10.62123616536458
 30
0.0
 10
0.0318874782986111
 20
10.60795762803819
 30
0.0
 10
0.0318874782986111
 20
10.59165445963542
 30
0.0
 10
0.0318874782986111
 20
10.57533772786458
 30
0.0
 10
0.0450981987847222
 20
10.56216769748264
 30
0.0
 10
0.0614420572916667
 20
10.56216769748264
 30
0.0
 10
0.0746799045138889
 20
10.56216769748264
 30
0.0
 10
0.0857883029513889
 20
10.57095675998264
 30
0.0
 10
0.0895046657986111
 20
10.58301459418403
 30
0.0
 10
0.0895046657986111
 20
10.58301459418403
 30
0.0
 10
0.1357964409722222
 20
10.58301459418403
 30
0.0
 10
0.1357964409722222
 20
10.58301459418403
 30
0.0
 10
0.1405843098958333
 20
10.58301459418403
 30
0.0
 10
0.1444769965277778
 20
10.58690728081597
 30
0.0
 10
0.1444769965277778
 20
10.59169514973958
 30
0.0
 10
0.1444769965277778
 20
10.59169514973958
 30
0.0
 10
0.1444769965277778
 20
10.78021240234375
 30
0.0
 10
0.1444769965277778
 20
10.78021240234375
 30
0.0
 10
0.1444769965277778
 20
10.78021240234375
 30
0.0
 10
0.1506618923611111
 20
10.78021240234375
 30
0.0
 10
0.1506618923611111
 20
10.78021240234375
 30
0.0
 10
0.1506618923611111
 20
10.78021240234375
 30
0.0
 10
0.1506618923611111
 20
10.82383219401042
 30
0.0
 10
0.1506618923611111
 20
10.82383219401042
 30
0.0
 10
0.1506618923611111
 20
10.82383219401042
 30
0.0
 10
0.1209309895833333
 20
10.82383219401042
 30
0.0
 10
0.1209309895833333
 20
10.82383219401042
 30
0.0
 10
0.1209309895833333
 20
10.82383219401042
 30
0.0
 10
0.1209309895833333
 20
10.78021240234375
 30
0.0
 10
0.1209309895833333
 20
10.78021240234375
 30
0.0
  0
HATCH
  5
6A
330
1F
100
AcDbEntity
  8
Top Board
 62
   102
100
AcDbHatch
 10
0.0
 20
0.0
 30
0.0
210
0.0
220
0.0
230
1.0
  2
SOLID
 70
     1
 71
     0
 91
        1
 92
        1
 93
        1
 72
     4
 94
        3
 73
     0
 74
     1
 95
       47
 96
       43
 40
0.0
 40
0.0
 40
0.0
 40
0.0
 40
1.0
 40
1.0
 40
1.0
 40
2.0
 40
2.0
 40
2.0
 40
3.0
 40
3.0
 40
3.0
 40
4.0
 40
4.0
 40
4.0
 40
5.0
 40
5.0
 40
5.0
 40
6.0
 40
6.0
 40
6.0
 40
7.0
 40
7.0
 40
7.0
 40
8.0
 40
8.0
 40
8.0
 40
9.0
 40
9.0
 40
9.0
 40
10.0
 40
10.0
 40
10.0
 40
11.0
 40
11.0
 40
11.0
 40
12.0
 40
12.0
 40
12.0
 40
13.0
 40
13.0
 40
13.0
 40
14.0
 40
14.0
 40
14.0
 40
14.0
 10
0.1209309895833333
 20
10.78021240234375
 10
0.1209309895833333
 20
10.78021240234375
 10
0.1271158854166667
 20
10.78021240234375
 10
0.1271158854166667
 20
10.78021240234375
 10
0.1271158854166667
 20
10.78021240234375
 10
0.1271158854166667
 20
10.60037570529514
 10
0.1271158854166667
 20
10.60037570529514
 10
0.1271158854166667
 20
10.60037570529514
 10
0.0894775390625
 20
10.60037570529514
 10
0.0894775390625
 20
10.60037570529514
 10
0.0857340494791667
 20
10.61240641276042
 10
0.0746527777777778
 20
10.62123616536458
 10
0.0614420572916667
 20
10.62123616536458
 10
0.0450981987847222
 20
10.62123616536458
 10
0.0318874782986111
 20
10.60795762803819
 10
0.0318874782986111
 20
10.59165445963542
 10
0.0318874782986111
 20
10.57533772786458
 10
0.0450981987847222
 20
10.56216769748264
 10
0.0614420572916667
 20
10.56216769748264
 10
0.0746799045138889
 20
10.56216769748264
 10
0.0857883029513889
 20
10.57095675998264
 10
0.0895046657986111
 20
10.58301459418403
 10
0.0895046657986111
 20
10.58301459418403
 10
0.1357964409722222
 20
10.58301459418403
 10
0.1357964409722222
 20
10.58301459418403
 10
0.1405843098958333
 20
10.58301459418403
 10
0.1444769965277778
 20
10.58690728081597
 10
0.1444769965277778
 20
10.59169514973958
 10
0.1444769965277778
 20
10.59169514973958
 10
0.1444769965277778
 20
10.78021240234375
 10
0.1444769965277778
 20
10.78021240234375
 10
0.1444769965277778
 20
10.78021240234375
 10
0.1506618923611111
 20
10.78021240234375
 10
0.1506618923611111
 20
10.78021240234375
 10
0.1506618923611111
 20
10.78021240234375
 10
0.1506618923611111
 20
10.82383219401042
 10
0.1506618923611111
 20
10.82383219401042
 10
0.1506618923611111
 20
10.82383219401042
 10
0.1209309895833333
 20
10.82383219401042
 10
0.1209309895833333
 20
10.82383219401042
 10
0.1209309895833333
 20
10.82383219401042
 10
0.1209309895833333
 20
10.78021240234375
 10
0.1209309895833333
 20
10.78021240234375
 97
        0
 75
     2
 76
     1
 98
        0
  0
SPLINE
  5
6B
330
1F
100
AcDbEntity
  8
Top Board
370
     0
100
AcDbSpline
210
0.0
220
0.0
230
1.0
 70
    11
 71
     3
 72
    29
 73
    25
 74
     0
 42
0.0000000001
 43
0.0000000001
 40
0.0
 40
0.0
 40
0.0
 40
0.0
 40
1.0
 40
1.0
 40
1.0
 40
2.0
 40
2.0
 40
2.0
 40
3.0
 40
3.0
 40
3.0
 40
4.0
 40
4.0
 40
4.0
 40
5.0
 40
5.0
 40
5.0
 40
6.0
 40
6.0
 40
6.0
 40
7.0
 40
7.0
 40
7.0
 40
8.0
 40
8.0
 40
8.0
 40
8.0
 10
0.3933241102430555
 20
11.0
 30
0.0
 10
0.3933241102430555
 20
11.0
 30
0.0
 10
0.0295545789930556
 20
11.0
 30
0.0
 10
0.0295545789930556
 20
11.0
 30
0.0
 10
0.0132107204861111
 20
11.0
 30
0.0
 10
0.0
 20
10.98672146267361
 30
0.0
 10
0.0
 20
10.97041829427083
 30
0.0
 10
0.0
 20
10.97041829427083
 30
0.0
 10
0.0
 20
10.41318766276042
 30
0.0
 10
0.0
 20
10.41318766276042
 30
0.0
 10
0.0
 20
10.39687093098958
 30
0.0
 10
0.0132107204861111
 20
10.38370090060764
 30
0.0
 10
0.0295545789930556
 20
10.38370090060764
 30
0.0
 10
0.0295545789930556
 20
10.38370090060764
 30
0.0
 10
0.3933241102430555
 20
10.38370090060764
 30
0.0
 10
0.3933241102430555
 20
10.38370090060764
 30
0.0
 10
0.4095730251736111
 20
10.38370090060764
 30
0.0
 10
0.4228244357638888
 20
10.39687093098958
 30
0.0
 10
0.4228244357638888
 20
10.41318766276042
 30
0.0
 10
0.4228244357638888
 20
10.41318766276042
 30
0.0
 10
0.4228244357638888
 20
10.97041829427083
 30
0.0
 10
0.4228244357638888
 20
10.97041829427083
 30
0.0
 10
0.4228244357638888
 20
10.98672146267361
 30
0.0
 10
0.4095730251736111
 20
11.0
 30
0.0
 10
0.3933241102430555
 20
11.0
 30
0.0
  0
SPLINE
  5
6C
330
1F
100
AcDbEntity
  8
Top Board
370
     0
100
AcDbSpline
210
0.0
220
0.0
230
1.0
 70
    11
 71
     3
 72
   194
 73
   190
 74
     0
 42
0.0000000001
 43
0.0000000001
 40
0.0
 40
0.0
 40
0.0
 40
0.0
 40
1.0
 40
1.0
 40
1.0
 40
2.0
 40
2.0
 40
2.0
 40
3.0
 40
3.0
 40
3.0
 40
4.0
 40
4.0
 40
4.0
 40
5.0
 40
5.0
 40
5.0
 40
6.0
 40
6.0
 40
6.0
 40
7.0
 40
7.0
 40
7.0
 40
8.0
 40
8.0
 40
8.0
 40
9.0
 40
9.0
 40
9.0
 40
10.0
 40
10.0
 40
10.0
 40
11.0
 40
11.0
 40
11.0
 40
12.0
 40
12.0
 40
12.0
 40
13.0
 40
13.0
 40
13.0
 40
14.0
 40
14.0
 40
14.0
 40
15.0
 40
15.0
 40
15.0
 40
16.0
 40
16.0
 40
16.0
 40
17.0
 40
17.0
 40
17.0
 40
18.0
 40
18.0
 40
18.0
 40
19.0
 40
19.0
 40
19.0
 40
20.0
 40
20.0
 40
20.0
 40
21.0
 40
21.0
 40
21.0
 40
22.0
 40
22.0
 40
22.0
 40
23.0
 40
23.0
 40
23.0
 40
24.0
 40
24.0
 40
24.0
 40
25.0
 40
25.0
 40
25.0
 40
26.0
 40
26.0
 40
26.0
 40
27.0
 40
27.0
 40
27.0
 40
28.0
 40
28.0
 40
28.0
 40
29.0
 40
29.0
 40
29.0
 40
30.0
 40
30.0
 40
30.0
 40
31.0
 40
31.0
 40
31.0
 40
32.0
 40
32.0
 40
32.0
 40
33.0
 40
33.0
 40
33.0
 40
34.0
 40
34.0
 40
34.0
 40
35.0
 40
35.0
 40
35.0
 40
36.0
 40
36.0
 40
36.0
 40
37.0
 40
37.0
 40
37.0
 40
38.0
 40
38.0
 40
38.0
 40
39.0
 40
39.0
 40
39.0
 40
40.0
 40
40.0
 40
40.0
 40
41.0
 40
41.0
 40
41.0
 40
42.0
 40
42.0
 40
42.0
 40
43.0
 40
43.0
 40
43.0
 40
44.0
 40
44.0
 40
44.0
 40
45.0
 40
45.0
 40
45.0
 40
46.0
 40
46.0
 40
46.0
 40
47.0
 40
47.0
 40
47.0
 40
48.0
 40
48.0
 40
48.0
 40
49.0
 40
49.0
 40
49.0
 40
50.0
 40
50.0
 40
50.0
 40
51.0
 40
51.0
 40
51.0
 40
52.0
 40
52.0
 40
52.0
 40
53.0
 40
53.0
 40
53.0
 40
54.0
 40
54.0
 40
54.0
 40
55.0
 40
55.0
 40
55.0
 40
56.0
 40
56.0
 40
56.0
 40
57.0
 40
57.0
 40
57.0
 40
58.0
 40
58.0
 40
58.0
 40
59.0
 40
59.0
 40
59.0
 40
60.0
 40
60.0
 40
60.0
 40
61.0
 40
61.0
 40
61.0
 40
62.0
 40
62.0
 40
62.0
 40
63.0
 40
63.0
 40
63.0
 40
63.0
 10
0.4086100260416666
 20
10.79164632161458
 30
0.0
 10
0.4086100260416666
 20
10.765625
 30
0.0
 10
0.3873969184027777
 20
10.74445258246528
 30
0.0
 10
0.3613416883680555
 20
10.74445258246528
 30
0.0
 10
0.3613416883680555
 20
10.74445258246528
 30
0.0
 10
0.3613416883680555
 20
10.73893907335069
 30
0.0
 10
0.3613416883680555
 20
10.73893907335069
 30
0.0
 10
0.3873969184027777
 20
10.73893907335069
 30
0.0
 10
0.4086100260416666
 20
10.71772596571181
 30
0.0
 10
0.4086100260416666
 20
10.69165717230903
 30
0.0
 10
0.4086100260416666
 20
10.66564263237847
 30
0.0
 10
0.3873969184027777
 20
10.64448377821181
 30
0.0
 10
0.3613416883680555
 20
10.64448377821181
 30
0.0
 10
0.3613416883680555
 20
10.64448377821181
 30
0.0
 10
0.3613416883680555
 20
10.63897705078125
 30
0.0
 10
0.3613416883680555
 20
10.63897705078125
 30
0.0
 10
0.3613416883680555
 20
10.63897705078125
 30
0.0
 10
0.3613416883680555
 20
10.63892279730903
 30
0.0
 10
0.3613416883680555
 20
10.63892279730903
 30
0.0
 10
0.3873969184027777
 20
10.63892279730903
 30
0.0
 10
0.4086100260416666
 20
10.61770968967014
 30
0.0
 10
0.4086100260416666
 20
10.59164089626736
 30
0.0
 10
0.4086100260416666
 20
10.56562635633681
 30
0.0
 10
0.3873969184027777
 20
10.54446750217014
 30
0.0
 10
0.3613416883680555
 20
10.54446750217014
 30
0.0
 10
0.3613416883680555
 20
10.54446750217014
 30
0.0
 10
0.3613416883680555
 20
10.53896077473958
 30
0.0
 10
0.3613416883680555
 20
10.53896077473958
 30
0.0
 10
0.3873969184027777
 20
10.53896077473958
 30
0.0
 10
0.4086100260416666
 20
10.51774766710069
 30
0.0
 10
0.4086100260416666
 20
10.49167887369792
 30
0.0
 10
0.4086100260416666
 20
10.49167887369792
 30
0.0
 10
0.4086100260416666
 20
10.49162462022569
 30
0.0
 10
0.4086100260416666
 20
10.49162462022569
 30
0.0
 10
0.4086100260416666
 20
10.46561008029514
 30
0.0
 10
0.3873969184027777
 20
10.44442409939236
 30
0.0
 10
0.3613416883680555
 20
10.44442409939236
 30
0.0
 10
0.3613416883680555
 20
10.44442409939236
 30
0.0
 10
0.2948133680555555
 20
10.44442409939236
 30
0.0
 10
0.2948133680555555
 20
10.44442409939236
 30
0.0
 10
0.2948133680555555
 20
10.44442409939236
 30
0.0
 10
0.2948133680555555
 20
10.47621663411458
 30
0.0
 10
0.2948133680555555
 20
10.47621663411458
 30
0.0
 10
0.2948133680555555
 20
10.47621663411458
 30
0.0
 10
0.3009982638888889
 20
10.47621663411458
 30
0.0
 10
0.3009982638888889
 20
10.47621663411458
 30
0.0
 10
0.3009982638888889
 20
10.47621663411458
 30
0.0
 10
0.3009982638888889
 20
10.51983642578125
 30
0.0
 10
0.3009982638888889
 20
10.51983642578125
 30
0.0
 10
0.3009982638888889
 20
10.51983642578125
 30
0.0
 10
0.2712673611111111
 20
10.51983642578125
 30
0.0
 10
0.2712673611111111
 20
10.51983642578125
 30
0.0
 10
0.2712673611111111
 20
10.51983642578125
 30
0.0
 10
0.2712673611111111
 20
10.47621663411458
 30
0.0
 10
0.2712673611111111
 20
10.47621663411458
 30
0.0
 10
0.2712673611111111
 20
10.47621663411458
 30
0.0
 10
0.2774522569444444
 20
10.47621663411458
 30
0.0
 10
0.2774522569444444
 20
10.47621663411458
 30
0.0
 10
0.2774522569444444
 20
10.47621663411458
 30
0.0
 10
0.2774522569444444
 20
10.44442409939236
 30
0.0
 10
0.2774522569444444
 20
10.44442409939236
 30
0.0
 10
0.2774522569444444
 20
10.44442409939236
 30
0.0
 10
0.0614827473958333
 20
10.44443766276042
 30
0.0
 10
0.0614827473958333
 20
10.44443766276042
 30
0.0
 10
0.0354275173611111
 20
10.44443766276042
 30
0.0
 10
0.0142144097222222
 20
10.46561008029514
 30
0.0
 10
0.0142144097222222
 20
10.49163818359375
 30
0.0
 10
0.0142144097222222
 20
10.51770697699653
 30
0.0
 10
0.0354275173611111
 20
10.53892008463542
 30
0.0
 10
0.0614827473958333
 20
10.53892008463542
 30
0.0
 10
0.0614827473958333
 20
10.53892008463542
 30
0.0
 10
0.0614827473958333
 20
10.54445393880208
 30
0.0
 10
0.0614827473958333
 20
10.54445393880208
 30
0.0
 10
0.0354275173611111
 20
10.54445393880208
 30
0.0
 10
0.0142144097222222
 20
10.56561279296875
 30
0.0
 10
0.0142144097222222
 20
10.59164089626736
 30
0.0
 10
0.0142144097222222
 20
10.61765543619792
 30
0.0
 10
0.0354275173611111
 20
10.63881429036458
 30
0.0
 10
0.0614827473958333
 20
10.63881429036458
 30
0.0
 10
0.0852728949652778
 20
10.63881429036458
 30
0.0
 10
0.1046278211805556
 20
10.65844048394097
 30
0.0
 10
0.1046278211805556
 20
10.68227132161458
 30
0.0
 10
0.1046278211805556
 20
10.68227132161458
 30
0.0
 10
0.1046278211805556
 20
10.70100233289931
 30
0.0
 10
0.1046278211805556
 20
10.70100233289931
 30
0.0
 10
0.1046278211805556
 20
10.72483317057292
 30
0.0
 10
0.0852728949652778
 20
10.74445936414931
 30
0.0
 10
0.0614827473958333
 20
10.74445936414931
 30
0.0
 10
0.0354275173611111
 20
10.74445936414931
 30
0.0
 10
0.0142144097222222
 20
10.76561821831597
 30
0.0
 10
0.0142144097222222
 20
10.79164632161458
 30
0.0
 10
0.0142144097222222
 20
10.81771511501736
 30
0.0
 10
0.0354275173611111
 20
10.83892822265625
 30
0.0
 10
0.0614827473958333
 20
10.83892822265625
 30
0.0
 10
0.0614827473958333
 20
10.83892822265625
 30
0.0
 10
0.0614827473958333
 20
10.84445529513889
 30
0.0
 10
0.0614827473958333
 20
10.84445529513889
 30
0.0
 10
0.0354275173611111
 20
10.84445529513889
 30
0.0
 10
0.0142144097222222
 20
10.86562771267361
 30
0.0
 10
0.0142144097222222
 20
10.89164903428819
 30
0.0
 10
0.0142144097222222
 20
10.91771782769097
 30
0.0
 10
0.0354275173611111
 20
10.93893093532986
 30
0.0
 10
0.0614827473958333
 20
10.93893093532986
 30
0.0
 10
0.0614827473958333
 20
10.93893093532986
 30
0.0
 10
0.0614149305555556
 20
10.97757297092014
 30
0.0
 10
0.0614149305555556
 20
10.97757297092014
 30
0.0
 10
0.0614149305555556
 20
10.97757297092014
 30
0.0
 10
0.1201578776041667
 20
10.97757297092014
 30
0.0
 10
0.1201578776041667
 20
10.97757297092014
 30
0.0
 10
0.1201578776041667
 20
10.97757297092014
 30
0.0
 10
0.1201578776041667
 20
10.95925564236111
 30
0.0
 10
0.1201578776041667
 20
10.95925564236111
 30
0.0
 10
0.1201578776041667
 20
10.95925564236111
 30
0.0
 10
0.1016438802083333
 20
10.95925564236111
 30
0.0
 10
0.1016438802083333
 20
10.95925564236111
 30
0.0
 10
0.1016438802083333
 20
10.95925564236111
 30
0.0
 10
0.1016438802083333
 20
10.92453342013889
 30
0.0
 10
0.1016438802083333
 20
10.92453342013889
 30
0.0
 10
0.1016438802083333
 20
10.92453342013889
 30
0.0
 10
0.1560329861111111
 20
10.92453342013889
 30
0.0
 10
0.1560329861111111
 20
10.92453342013889
 30
0.0
 10
0.1560329861111111
 20
10.92453342013889
 30
0.0
 10
0.1560329861111111
 20
10.95925564236111
 30
0.0
 10
0.1560329861111111
 20
10.95925564236111
 30
0.0
 10
0.1560329861111111
 20
10.95925564236111
 30
0.0
 10
0.1375189887152778
 20
10.95925564236111
 30
0.0
 10
0.1375189887152778
 20
10.95925564236111
 30
0.0
 10
0.1375189887152778
 20
10.95925564236111
 30
0.0
 10
0.1375189887152778
 20
10.97757297092014
 30
0.0
 10
0.1375189887152778
 20
10.97757297092014
 30
0.0
 10
0.1375189887152778
 20
10.97757297092014
 30
0.0
 10
0.3037651909722222
 20
10.97757297092014
 30
0.0
 10
0.3037651909722222
 20
10.97757297092014
 30
0.0
 10
0.3037651909722222
 20
10.97757297092014
 30
0.0
 10
0.3037651909722222
 20
10.92676459418403
 30
0.0
 10
0.3037651909722222
 20
10.92676459418403
 30
0.0
 10
0.3037651909722222
 20
10.92676459418403
 30
0.0
 10
0.2855495876736111
 20
10.89363606770833
 30
0.0
 10
0.2855495876736111
 20
10.89363606770833
 30
0.0
 10
0.2855495876736111
 20
10.89363606770833
 30
0.0
 10
0.2844509548611111
 20
10.89363606770833
 30
0.0
 10
0.2844509548611111
 20
10.89363606770833
 30
0.0
 10
0.2844509548611111
 20
10.89363606770833
 30
0.0
 10
0.2844509548611111
 20
10.89626736111111
 30
0.0
 10
0.2844509548611111
 20
10.89626736111111
 30
0.0
 10
0.2844509548611111
 20
10.89626736111111
 30
0.0
 10
0.2462565104166667
 20
10.89626736111111
 30
0.0
 10
0.2462565104166667
 20
10.89626736111111
 30
0.0
 10
0.2462565104166667
 20
10.89626736111111
 30
0.0
 10
0.2462565104166667
 20
10.87364366319444
 30
0.0
 10
0.2462565104166667
 20
10.87364366319444
 30
0.0
 10
0.2462565104166667
 20
10.87364366319444
 30
0.0
 10
0.2844509548611111
 20
10.87364366319444
 30
0.0
 10
0.2844509548611111
 20
10.87364366319444
 30
0.0
 10
0.2844509548611111
 20
10.87364366319444
 30
0.0
 10
0.2844509548611111
 20
10.87627495659722
 30
0.0
 10
0.2844509548611111
 20
10.87627495659722
 30
0.0
 10
0.2844509548611111
 20
10.87627495659722
 30
0.0
 10
0.2906901041666666
 20
10.87627495659722
 30
0.0
 10
0.2906901041666666
 20
10.87627495659722
 30
0.0
 10
0.2938503689236111
 20
10.87627495659722
 30
0.0
 10
0.2967664930555555
 20
10.87799750434028
 30
0.0
 10
0.2982991536458333
 20
10.88077121310764
 30
0.0
 10
0.2982991536458333
 20
10.88077121310764
 30
0.0
 10
0.3200547960069444
 20
10.92034912109375
 30
0.0
 10
0.3200547960069444
 20
10.92034912109375
 30
0.0
 10
0.3207600911458333
 20
10.921630859375
 30
0.0
 10
0.3211263020833333
 20
10.92306857638889
 30
0.0
 10
0.3211263020833333
 20
10.92453342013889
 30
0.0
 10
0.3211263020833333
 20
10.92453342013889
 30
0.0
 10
0.3211263020833333
 20
10.97757297092014
 30
0.0
 10
0.3211263020833333
 20
10.97757297092014
 30
0.0
 10
0.3211263020833333
 20
10.97757297092014
 30
0.0
 10
0.3614095052083333
 20
10.97757297092014
 30
0.0
 10
0.3614095052083333
 20
10.97757297092014
 30
0.0
 10
0.3614095052083333
 20
10.97757297092014
 30
0.0
 10
0.3614095052083333
 20
10.93893093532986
 30
0.0
 10
0.3614095052083333
 20
10.93893093532986
 30
0.0
 10
0.3874647352430555
 20
10.93893093532986
 30
0.0
 10
0.4086100260416666
 20
10.91771782769097
 30
0.0
 10
0.4086100260416666
 20
10.89164903428819
 30
0.0
 10
0.4086100260416666
 20
10.86562771267361
 30
0.0
 10
0.3873969184027777
 20
10.84445529513889
 30
0.0
 10
0.3613416883680555
 20
10.84445529513889
 30
0.0
 10
0.3613416883680555
 20
10.84445529513889
 30
0.0
 10
0.3613416883680555
 20
10.83892822265625
 30
0.0
 10
0.3613416883680555
 20
10.83892822265625
 30
0.0
 10
0.3873969184027777
 20
10.83892822265625
 30
0.0
 10
0.4086100260416666
 20
10.81771511501736
 30
0.0
 10
0.4086100260416666
 20
10.79164632161458
 30
0.0
  0
HATCH
  5
6D
330
1F
100
AcDbEntity
  8
Top Board
 62
   102
100
AcDbHatch
 10
0.0
 20
0.0
 30
0.0
210
0.0
220
0.0
230
1.0
  2
SOLID
 70
     1
 71
     0
 91
        2
 92
        1
 93
        1
 72
     4
 94
        3
 73
     0
 74
     1
 95
       29
 96
       25
 40
0.0
 40
0.0
 40
0.0
 40
0.0
 40
1.0
 40
1.0
 40
1.0
 40
2.0
 40
2.0
 40
2.0
 40
3.0
 40
3.0
 40
3.0
 40
4.0
 40
4.0
 40
4.0
 40
5.0
 40
5.0
 40
5.0
 40
6.0
 40
6.0
 40
6.0
 40
7.0
 40
7.0
 40
7.0
 40
8.0
 40
8.0
 40
8.0
 40
8.0
 10
0.3933241102430555
 20
11.0
 10
0.3933241102430555
 20
11.0
 10
0.0295545789930556
 20
11.0
 10
0.0295545789930556
 20
11.0
 10
0.0132107204861111
 20
11.0
 10
0.0
 20
10.98672146267361
 10
0.0
 20
10.97041829427083
 10
0.0
 20
10.97041829427083
 10
0.0
 20
10.41318766276042
 10
0.0
 20
10.41318766276042
 10
0.0
 20
10.39687093098958
 10
0.0132107204861111
 20
10.38370090060764
 10
0.0295545789930556
 20
10.38370090060764
 10
0.0295545789930556
 20
10.38370090060764
 10
0.3933241102430555
 20
10.38370090060764
 10
0.3933241102430555
 20
10.38370090060764
 10
0.4095730251736111
 20
10.38370090060764
 10
0.4228244357638888
 20
10.39687093098958
 10
0.4228244357638888
 20
10.41318766276042
 10
0.4228244357638888
 20
10.41318766276042
 10
0.4228244357638888
 20
10.97041829427083
 10
0.4228244357638888
 20
10.97041829427083
 10
0.4228244357638888
 20
10.98672146267361
 10
0.4095730251736111
 20
11.0
 10
0.3933241102430555
 20
11.0
 97
        0
 92
        1
 93
        1
 72
     4
 94
        3
 73
     0
 74
     1
 95
      194
 96
      190
 40
0.0
 40
0.0
 40
0.0
 40
0.0
 40
1.0
 40
1.0
 40
1.0
 40
2.0
 40
2.0
 40
2.0
 40
3.0
 40
3.0
 40
3.0
 40
4.0
 40
4.0
 40
4.0
 40
5.0
 40
5.0
 40
5.0
 40
6.0
 40
6.0
 40
6.0
 40
7.0
 40
7.0
 40
7.0
 40
8.0
 40
8.0
 40
8.0
 40
9.0
 40
9.0
 40
9.0
 40
10.0
 40
10.0
 40
10.0
 40
11.0
 40
11.0
 40
11.0
 40
12.0
 40
12.0
 40
12.0
 40
13.0
 40
13.0
 40
13.0
 40
14.0
 40
14.0
 40
14.0
 40
15.0
 40
15.0
 40
15.0
 40
16.0
 40
16.0
 40
16.0
 40
17.0
 40
17.0
 40
17.0
 40
18.0
 40
18.0
 40
18.0
 40
19.0
 40
19.0
 40
19.0
 40
20.0
 40
20.0
 40
20.0
 40
21.0
 40
21.0
 40
21.0
 40
22.0
 40
22.0
 40
22.0
 40
23.0
 40
23.0
 40
23.0
 40
24.0
 40
24.0
 40
24.0
 40
25.0
 40
25.0
 40
25.0
 40
26.0
 40
26.0
 40
26.0
 40
27.0
 40
27.0
 40
27.0
 40
28.0
 40
28.0
 40
28.0
 40
29.0
 40
29.0
 40
29.0
 40
30.0
 40
30.0
 40
30.0
 40
31.0
 40
31.0
 40
31.0
 40
32.0
 40
32.0
 40
32.0
 40
33.0
 40
33.0
 40
33.0
 40
34.0
 40
34.0
 40
34.0
 40
35.0
 40
35.0
 40
35.0
 40
36.0
 40
36.0
 40
36.0
 40
37.0
 40
37.0
 40
37.0
 40
38.0
 40
38.0
 40
38.0
 40
39.0
 40
39.0
 40
39.0
 40
40.0
 40
40.0
 40
40.0
 40
41.0
 40
41.0
 40
41.0
 40
42.0
 40
42.0
 40
42.0
 40
43.0
 40
43.0
 40
43.0
 40
44.0
 40
44.0
 40
44.0
 40
45.0
 40
45.0
 40
45.0
 40
46.0
 40
46.0
 40
46.0
 40
47.0
 40
47.0
 40
47.0
 40
48.0
 40
48.0
 40
48.0
 40
49.0
 40
49.0
 40
49.0
 40
50.0
 40
50.0
 40
50.0
 40
51.0
 40
51.0
 40
51.0
 40
52.0
 40
52.0
 40
52.0
 40
53.0
 40
53.0
 40
53.0
 40
54.0
 40
54.0
 40
54.0
 40
55.0
 40
55.0
 40
55.0
 40
56.0
 40
56.0
 40
56.0
 40
57.0
 40
57.0
 40
57.0
 40
58.0
 40
58.0
 40
58.0
 40
59.0
 40
59.0
 40
59.0
 40
60.0
 40
60.0
 40
60.0
 40
61.0
 40
61.0
 40
61.0
 40
62.0
 40
62.0
 40
62.0
 40
63.0
 40
63.0
 40
63.0
 40
63.0
 10
0.4086100260416666
 20
10.79164632161458
 10
0.4086100260416666
 20
10.765625
 10
0.3873969184027777
 20
10.74445258246528
 10
0.3613416883680555
 20
10.74445258246528
 10
0.3613416883680555
 20
10.74445258246528
 10
0.3613416883680555
 20
10.73893907335069
 10
0.3613416883680555
 20
10.73893907335069
 10
0.3873969184027777
 20
10.73893907335069
 10
0.4086100260416666
 20
10.71772596571181
 10
0.4086100260416666
 20
10.69165717230903
 10
0.4086100260416666
 20
10.66564263237847
 10
0.3873969184027777
 20
10.64448377821181
 10
0.3613416883680555
 20
10.64448377821181
 10
0.3613416883680555
 20
10.64448377821181
 10
0.3613416883680555
 20
10.63897705078125
 10
0.3613416883680555
 20
10.63897705078125
 10
0.3613416883680555
 20
10.63897705078125
 10
0.3613416883680555
 20
10.63892279730903
 10
0.3613416883680555
 20
10.63892279730903
 10
0.3873969184027777
 20
10.63892279730903
 10
0.4086100260416666
 20
10.61770968967014
 10
0.4086100260416666
 20
10.59164089626736
 10
0.4086100260416666
 20
10.56562635633681
 10
0.3873969184027777
 20
10.54446750217014
 10
0.3613416883680555
 20
10.54446750217014
 10
0.3613416883680555
 20
10.54446750217014
 10
0.3613416883680555
 20
10.53896077473958
 10
0.3613416883680555
 20
10.53896077473958
 10
0.3873969184027777
 20
10.53896077473958
 10
0.4086100260416666
 20
10.51774766710069
 10
0.4086100260416666
 20
10.49167887369792
 10
0.4086100260416666
 20
10.49167887369792
 10
0.4086100260416666
 20
10.49162462022569
 10
0.4086100260416666
 20
10.49162462022569
 10
0.4086100260416666
 20
10.46561008029514
 10
0.3873969184027777
 20
10.44442409939236
 10
0.3613416883680555
 20
10.44442409939236
 10
0.3613416883680555
 20
10.44442409939236
 10
0.2948133680555555
 20
10.44442409939236
 10
0.2948133680555555
 20
10.44442409939236
 10
0.2948133680555555
 20
10.44442409939236
 10
0.2948133680555555
 20
10.47621663411458
 10
0.2948133680555555
 20
10.47621663411458
 10
0.2948133680555555
 20
10.47621663411458
 10
0.3009982638888889
 20
10.47621663411458
 10
0.3009982638888889
 20
10.47621663411458
 10
0.3009982638888889
 20
10.47621663411458
 10
0.3009982638888889
 20
10.51983642578125
 10
0.3009982638888889
 20
10.51983642578125
 10
0.3009982638888889
 20
10.51983642578125
 10
0.2712673611111111
 20
10.51983642578125
 10
0.2712673611111111
 20
10.51983642578125
 10
0.2712673611111111
 20
10.51983642578125
 10
0.2712673611111111
 20
10.47621663411458
 10
0.2712673611111111
 20
10.47621663411458
 10
0.2712673611111111
 20
10.47621663411458
 10
0.2774522569444444
 20
10.47621663411458
 10
0.2774522569444444
 20
10.47621663411458
 10
0.2774522569444444
 20
10.47621663411458
 10
0.2774522569444444
 20
10.44442409939236
 10
0.2774522569444444
 20
10.44442409939236
 10
0.2774522569444444
 20
10.44442409939236
 10
0.0614827473958333
 20
10.44443766276042
 10
0.0614827473958333
 20
10.44443766276042
 10
0.0354275173611111
 20
10.44443766276042
 10
0.0142144097222222
 20
10.46561008029514
 10
0.0142144097222222
 20
10.49163818359375
 10
0.0142144097222222
 20
10.51770697699653
 10
0.0354275173611111
 20
10.53892008463542
 10
0.0614827473958333
 20
10.53892008463542
 10
0.0614827473958333
 20
10.53892008463542
 10
0.0614827473958333
 20
10.54445393880208
 10
0.0614827473958333
 20
10.54445393880208
 10
0.0354275173611111
 20
10.54445393880208
 10
0.0142144097222222
 20
10.56561279296875
 10
0.0142144097222222
 20
10.59164089626736
 10
0.0142144097222222
 20
10.61765543619792
 10
0.0354275173611111
 20
10.63881429036458
 10
0.0614827473958333
 20
10.63881429036458
 10
0.0852728949652778
 20
10.63881429036458
 10
0.1046278211805556
 20
10.65844048394097
 10
0.1046278211805556
 20
10.68227132161458
 10
0.1046278211805556
 20
10.68227132161458
 10
0.1046278211805556
 20
10.70100233289931
 10
0.1046278211805556
 20
10.70100233289931
 10
0.1046278211805556
 20
10.72483317057292
 10
0.0852728949652778
 20
10.74445936414931
 10
0.0614827473958333
 20
10.74445936414931
 10
0.0354275173611111
 20
10.74445936414931
 10
0.0142144097222222
 20
10.76561821831597
 10
0.0142144097222222
 20
10.79164632161458
 10
0.0142144097222222
 20
10.81771511501736
 10
0.0354275173611111
 20
10.83892822265625
 10
0.0614827473958333
 20
10.83892822265625
 10
0.0614827473958333
 20
10.83892822265625
 10
0.0614827473958333
 20
10.84445529513889
 10
0.0614827473958333
 20
10.84445529513889
 10
0.0354275173611111
 20
10.84445529513889
 10
0.0142144097222222
 20
10.86562771267361
 10
0.0142144097222222
 20
10.89164903428819
 10
0.0142144097222222
 20
10.91771782769097
 10
0.0354275173611111
 20
10.93893093532986
 10
0.0614827473958333
 20
10.93893093532986
 10
0.0614827473958333
 20
10.93893093532986
 10
0.0614149305555556
 20
10.97757297092014
 10
0.0614149305555556
 20
10.97757297092014
 10
0.0614149305555556
 20
10.97757297092014
 10
0.1201578776041667
 20
10.97757297092014
 10
0.1201578776041667
 20
10.97757297092014
 10
0.1201578776041667
 20
10.97757297092014
 10
0.1201578776041667
 20
10.95925564236111
 10
0.1201578776041667
 20
10.95925564236111
 10
0.1201578776041667
 20
10.95925564236111
 10
0.1016438802083333
 20
10.95925564236111
 10
0.1016438802083333
 20
10.95925564236111
 10
0.1016438802083333
 20
10.95925564236111
 10
0.1016438802083333
 20
10.92453342013889
 10
0.1016438802083333
 20
10.92453342013889
 10
0.1016438802083333
 20
10.92453342013889
 10
0.1560329861111111
 20
10.92453342013889
 10
0.1560329861111111
 20
10.92453342013889
 10
0.1560329861111111
 20
10.92453342013889
 10
0.1560329861111111
 20
10.95925564236111
 10
0.1560329861111111
 20
10.95925564236111
 10
0.1560329861111111
 20
10.95925564236111
 10
0.1375189887152778
 20
10.95925564236111
 10
0.1375189887152778
 20
10.95925564236111
 10
0.1375189887152778
 20
10.95925564236111
 10
0.1375189887152778
 20
10.97757297092014
 10
0.1375189887152778
 20
10.97757297092014
 10
0.1375189887152778
 20
10.97757297092014
 10
0.3037651909722222
 20
10.97757297092014
 10
0.3037651909722222
 20
10.97757297092014
 10
0.3037651909722222
 20
10.97757297092014
 10
0.3037651909722222
 20
10.92676459418403
 10
0.3037651909722222
 20
10.92676459418403
 10
0.3037651909722222
 20
10.92676459418403
 10
0.2855495876736111
 20
10.89363606770833
 10
0.2855495876736111
 20
10.89363606770833
 10
0.2855495876736111
 20
10.89363606770833
 10
0.2844509548611111
 20
10.89363606770833
 10
0.2844509548611111
 20
10.89363606770833
 10
0.2844509548611111
 20
10.89363606770833
 10
0.2844509548611111
 20
10.89626736111111
 10
0.2844509548611111
 20
10.89626736111111
 10
0.2844509548611111
 20
10.89626736111111
 10
0.2462565104166667
 20
10.89626736111111
 10
0.2462565104166667
 20
10.89626736111111
 10
0.2462565104166667
 20
10.89626736111111
 10
0.2462565104166667
 20
10.87364366319444
 10
0.2462565104166667
 20
10.87364366319444
 10
0.2462565104166667
 20
10.87364366319444
 10
0.2844509548611111
 20
10.87364366319444
 10
0.2844509548611111
 20
10.87364366319444
 10
0.2844509548611111
 20
10.87364366319444
 10
0.2844509548611111
 20
10.87627495659722
 10
0.2844509548611111
 20
10.87627495659722
 10
0.2844509548611111
 20
10.87627495659722
 10
0.2906901041666666
 20
10.87627495659722
 10
0.2906901041666666
 20
10.87627495659722
 10
0.2938503689236111
 20
10.87627495659722
 10
0.2967664930555555
 20
10.87799750434028
 10
0.2982991536458333
 20
10.88077121310764
 10
0.2982991536458333
 20
10.88077121310764
 10
0.3200547960069444
 20
10.92034912109375
 10
0.3200547960069444
 20
10.92034912109375
 10
0.3207600911458333
 20
10.921630859375
 10
0.3211263020833333
 20
10.92306857638889
 10
0.3211263020833333
 20
10.92453342013889
 10
0.3211263020833333
 20
10.92453342013889
 10
0.3211263020833333
 20
10.97757297092014
 10
0.3211263020833333
 20
10.97757297092014
 10
0.3211263020833333
 20
10.97757297092014
 10
0.3614095052083333
 20
10.97757297092014
 10
0.3614095052083333
 20
10.97757297092014
 10
0.3614095052083333
 20
10.97757297092014
 10
0.3614095052083333
 20
10.93893093532986
 10
0.3614095052083333
 20
10.93893093532986
 10
0.3874647352430555
 20
10.93893093532986
 10
0.4086100260416666
 20
10.91771782769097
 10
0.4086100260416666
 20
10.89164903428819
 10
0.4086100260416666
 20
10.86562771267361
 10
0.3873969184027777
 20
10.84445529513889
 10
0.3613416883680555
 20
10.84445529513889
 10
0.3613416883680555
 20
10.84445529513889
 10
0.3613416883680555
 20
10.83892822265625
 10
0.3613416883680555
 20
10.83892822265625
 10
0.3873969184027777
 20
10.83892822265625
 10
0.4086100260416666
 20
10.81771511501736
 10
0.4086100260416666
 20
10.79164632161458
 97
        0
 75
     2
 76
     1
 98
        0
  0
POLYLINE
  5
6F
330
1F
100
AcDbEntity
  8
Drill
370
     0
100
AcDb2dPolyline
 66
     1
 10
0.0
 20
0.0
 30
0.0
  0
VERTEX
  5
70
330
6F
100
AcDbEntity
  8
Drill
370
     0
100
AcDbVertex
100
AcDb2dVertex
 10
0.3692220052083333
 20
10.89168972439236
 30
0.0
  0
VERTEX
  5
71
330
6F
100
AcDbEntity
  8
Drill
370
     0
100
AcDbVertex
100
AcDb2dVertex
 10
0.3614095052083333
 20
10.89168972439236
 30
0.0
  0
VERTEX
  5
72
330
6F
100
AcDbEntity
  8
Drill
370
     0
100
AcDbVertex
100
AcDb2dVertex
 10
0.3614095052083333
 20
10.89950222439236
 30
0.0
  0
SEQEND
  5
73
330
6F
100
AcDbEntity
  8
Drill
370
     0
  0
POLYLINE
  5
74
330
1F
100
AcDbEntity
  8
Drill
370
     0
100
AcDb2dPolyline
 66
     1
 10
0.0
 20
0.0
 30
0.0
  0
VERTEX
  5
75
330
74
100
AcDbEntity
  8
Drill
370
     0
100
AcDbVertex
100
AcDb2dVertex
 10
0.3692220052083333
 20
10.79168701171875
 30
0.0
  0
VERTEX
  5
76
330
74
100
AcDbEntity
  8
Drill
370
     0
100
AcDbVertex
100
AcDb2dVertex
 10
0.3614095052083333
 20
10.79168701171875
 30
0.0
  0
VERTEX
  5
77
330
74
100
AcDbEntity
  8
Drill
370
     0
100
AcDbVertex
100
AcDb2dVertex
 10
0.3614095052083333
 20
10.79949951171875
 30
0.0
  0
SEQEND
  5
78
330
74
100
AcDbEntity
  8
Drill
370
     0
  0
POLYLINE
  5
79
330
1F
100
AcDbEntity
  8
Drill
370
     0
100
AcDb2dPolyline
 66
     1
 10
0.0
 20
0.0
 30
0.0
  0
VERTEX
  5
7A
330
79
100
AcDbEntity
  8
Drill
370
     0
100
AcDbVertex
100
AcDb2dVertex
 10
0.3692220052083333
 20
10.69169786241319
 30
0.0
  0
VERTEX
  5
7B
330
79
100
AcDbEntity
  8
Drill
370
     0
100
AcDbVertex
100
AcDb2dVertex
 10
0.3614095052083333
 20
10.69169786241319
 30
0.0
  0
VERTEX
  5
7C
330
79
100
AcDbEntity
  8
Drill
370
     0
100
AcDbVertex
100
AcDb2dVertex
 10
0.3614095052083333
 20
10.69951036241319
 30
0.0
  0
SEQEND
  5
7D
330
79
100
AcDbEntity
  8
Drill
370
     0
  0
POLYLINE
  5
7E
330
1F
100
AcDbEntity
  8
Drill
370
     0
100
AcDb2dPolyline
 66
     1
 10
0.0
 20
0.0
 30
0.0
  0
VERTEX
  5
7F
330
7E
100
AcDbEntity
  8
Drill
370
     0
100
AcDbVertex
100
AcDb2dVertex
 10
0.3692220052083333
 20
10.59169514973958
 30
0.0
  0
VERTEX
  5
80
330
7E
100
AcDbEntity
  8
Drill
370
     0
100
AcDbVertex
100
AcDb2dVertex
 10
0.3614095052083333
 20
10.59169514973958
 30
0.0
  0
VERTEX
  5
81
330
7E
100
AcDbEntity
  8
Drill
370
     0
100
AcDbVertex
100
AcDb2dVertex
 10
0.3614095052083333
 20
10.59950764973958
 30
0.0
  0
SEQEND
  5
82
330
7E
100
AcDbEntity
  8
Drill
370
     0
  0
POLYLINE
  5
83
330
1F
100
AcDbEntity
  8
Drill
370
     0
100
AcDb2dPolyline
 66
     1
 10
0.0
 20
0.0
 30
0.0
  0
VERTEX
  5
84
330
83
100
AcDbEntity
  8
Drill
370
     0
100
AcDbVertex
100
AcDb2dVertex
 10
0.3692220052083333
 20
10.49167887369792
 30
0.0
  0
VERTEX
  5
85
330
83
100
AcDbEntity
  8
Drill
370
     0
100
AcDbVertex
100
AcDb2dVertex
 10
0.3614095052083333
 20
10.49167887369792
 30
0.0
  0
VERTEX
  5
86
330
83
100
AcDbEntity
  8
Drill
370
     0
100
AcDbVertex
100
AcDb2dVertex
 10
0.3614095052083333
 20
10.49949137369792
 30
0.0
  0
SEQEND
  5
87
330
83
100
AcDbEntity
  8
Drill
370
     0
  0
POLYLINE
  5
88
330
1F
100
AcDbEntity
  8
Drill
370
     0
100
AcDb2dPolyline
 66
     1
 10
0.0
 20
0.0
 30
0.0
  0
VERTEX
  5
89
330
88
100
AcDbEntity
  8
Drill
370
     0
100
AcDbVertex
100
AcDb2dVertex
 10
0.0692274305555556
 20
10.49167887369792
 30
0.0
  0
VERTEX
  5
8A
330
88
100
AcDbEntity
  8
Drill
370
     0
100
AcDbVertex
100
AcDb2dVertex
 10
0.0614149305555556
 20
10.49167887369792
 30
0.0
  0
VERTEX
  5
8B
330
88
100
AcDbEntity
  8
Drill
370
     0
100
AcDbVertex
100
AcDb2dVertex
 10
0.0614149305555556
 20
10.49949137369792
 30
0.0
  0
SEQEND
  5
8C
330
88
100
AcDbEntity
  8
Drill
370
     0
  0
POLYLINE
  5
8D
330
1F
100
AcDbEntity
  8
Drill
370
     0
100
AcDb2dPolyline
 66
     1
 10
0.0
 20
0.0
 30
0.0
  0
VERTEX
  5
8E
330
8D
100
AcDbEntity
  8
Drill
370
     0
100
AcDbVertex
100
AcDb2dVertex
 10
0.0692274305555556
 20
10.59169514973958
 30
0.0
  0
VERTEX
  5
8F
330
8D
100
AcDbEntity
  8
Drill
370
     0
100
AcDbVertex
100
AcDb2dVertex
 10
0.0614149305555556
 20
10.59169514973958
 30
0.0
  0
VERTEX
  5
90
330
8D
100
AcDbEntity
  8
Drill
370
     0
100
AcDbVertex
100
AcDb2dVertex
 10
0.0614149305555556
 20
10.59950764973958
 30
0.0
  0
SEQEND
  5
91
330
8D
100
AcDbEntity
  8
Drill
370
     0
  0
POLYLINE
  5
92
330
1F
100
AcDbEntity
  8
Drill
370
     0
100
AcDb2dPolyline
 66
     1
 10
0.0
 20
0.0
 30
0.0
  0
VERTEX
  5
93
330
92
100
AcDbEntity
  8
Drill
370
     0
100
AcDbVertex
100
AcDb2dVertex
 10
0.0692274305555556
 20
10.69116889105903
 30
0.0
  0
VERTEX
  5
94
330
92
100
AcDbEntity
  8
Drill
370
     0
100
AcDbVertex
100
AcDb2dVertex
 10
0.0614149305555556
 20
10.69116889105903
 30
0.0
  0
VERTEX
  5
95
330
92
100
AcDbEntity
  8
Drill
370
     0
100
AcDbVertex
100
AcDb2dVertex
 10
0.0614149305555556
 20
10.69898139105903
 30
0.0
  0
SEQEND
  5
96
330
92
100
AcDbEntity
  8
Drill
370
     0
  0
POLYLINE
  5
97
330
1F
100
AcDbEntity
  8
Drill
370
     0
100
AcDb2dPolyline
 66
     1
 10
0.0
 20
0.0
 30
0.0
  0
VERTEX
  5
98
330
97
100
AcDbEntity
  8
Drill
370
     0
100
AcDbVertex
100
AcDb2dVertex
 10
0.0692274305555556
 20
10.79168701171875
 30
0.0
  0
VERTEX
  5
99
330
97
100
AcDbEntity
  8
Drill
370
     0
100
AcDbVertex
100
AcDb2dVertex
 10
0.0614149305555556
 20
10.79168701171875
 30
0.0
  0
VERTEX
  5
9A
330
97
100
AcDbEntity
  8
Drill
370
     0
100
AcDbVertex
100
AcDb2dVertex
 10
0.0614149305555556
 20
10.79949951171875
 30
0.0
  0
SEQEND
  5
9B
330
97
100
AcDbEntity
  8
Drill
370
     0
  0
POLYLINE
  5
9C
330
1F
100
AcDbEntity
  8
Drill
370
     0
100
AcDb2dPolyline
 66
     1
 10
0.0
 20
0.0
 30
0.0
  0
VERTEX
  5
9D
330
9C
100
AcDbEntity
  8
Drill
370
     0
100
AcDbVertex
100
AcDb2dVertex
 10
0.0692274305555556
 20
10.89168972439236
 30
0.0
  0
VERTEX
  5
9E
330
9C
100
AcDbEntity
  8
Drill
370
     0
100
AcDbVertex
100
AcDb2dVertex
 10
0.0614149305555556
 20
10.89168972439236
 30
0.0
  0
VERTEX
  5
9F
330
9C
100
AcDbEntity
  8
Drill
370
     0
100
AcDbVertex
100
AcDb2dVertex
 10
0.0614149305555556
 20
10.89950222439236
 30
0.0
  0
SEQEND
  5
A0
330
9C
100
AcDbEntity
  8
Drill
370
     0
  0
ENDSEC
  0
SECTION
  2
OBJECTS
  0
DICTIONARY
  5
C
330
0
100
AcDbDictionary
281
     1
  3
ACAD_GROUP
350
D
  3
ACAD_LAYOUT
350
1A
  3
ACAD_MLINESTYLE
350
17
  3
ACAD_PLOTSETTINGS
350
19
  3
ACAD_PLOTSTYLENAME
350
E
  3
ACAD_TABLESTYLE
350
A1
  3
ACAD_VISUALSTYLE
350
2A
  0
DICTIONARY
  5
D
102
{ACAD_REACTORS
330
C
102
}
330
C
100
AcDbDictionary
281
     1
  0
DICTIONARY
  5
1A
102
{ACAD_REACTORS
330
C
102
}
330
C
100
AcDbDictionary
281
     1
  3
Layout1
350
1E
  3
Layout2
350
26
  3
Model
350
22
  0
DICTIONARY
  5
17
102
{ACAD_REACTORS
330
C
102
}
330
C
100
AcDbDictionary
281
     1
  3
Standard
350
18
  0
DICTIONARY
  5
19
102
{ACAD_REACTORS
330
C
102
}
330
C
100
AcDbDictionary
281
     1
  0
ACDBDICTIONARYWDFLT
  5
E
102
{ACAD_REACTORS
330
C
102
}
330
C
100
AcDbDictionary
281
     1
  3
Normal
350
F
100
AcDbDictionaryWithDefault
340
F
  0
DICTIONARY
  5
A1
102
{ACAD_REACTORS
330
C
102
}
330
C
100
AcDbDictionary
281
     1
  0
DICTIONARY
  5
2A
102
{ACAD_REACTORS
330
C
102
}
330
C
100
AcDbDictionary
281
     1
  3
2dWireframe
350
2F
  3
3D Hidden
350
31
  3
3dWireframe
350
30
  3
Basic
350
32
  3
Brighten
350
36
  3
ColorChange
350
3A
  3
Conceptual
350
34
  3
Dim
350
35
  3
Facepattern
350
39
  3
Flat
350
2B
  3
FlatWithEdges
350
2C
  3
Gouraud
350
2D
  3
GouraudWithEdges
350
2E
  3
Linepattern
350
38
  3
Realistic
350
33
  3
Thicken
350
37
  0
LAYOUT
  5
1E
102
{ACAD_REACTORS
330
1A
102
}
330
1A
100
AcDbPlotSettings
  1

  2
none_device
  4

  6

 40
0.0
 41
0.0
 42
0.0
 43
0.0
 44
0.0
 45
0.0
 46
0.0
 47
0.0
 48
0.0
 49
0.0
140
0.0
141
0.0
142
1.0
143
1.0
 70
   688
 72
     0
 73
     0
 74
     5
  7

 75
    16
 76
     0
 77
     2
 78
   300
147
1.0
148
0.0
149
0.0
100
AcDbLayout
  1
Layout1
 70
     1
 71
     1
 10
0.0
 20
0.0
 11
12.0
 21
9.0
 12
0.0
 22
0.0
 32
0.0
 14
1.000000000000000E+20
 24
1.000000000000000E+20
 34
1.000000000000000E+20
 15
-1.000000000000000E+20
 25
-1.000000000000000E+20
 35
-1.000000000000000E+20
146
0.0
 13
0.0
 23
0.0
 33
0.0
 16
1.0
 26
0.0
 36
0.0
 17
0.0
 27
1.0
 37
0.0
 76
     0
330
1B
  0
LAYOUT
  5
26
102
{ACAD_REACTORS
330
1A
102
}
330
1A
100
AcDbPlotSettings
  1

  2
none_device
  4

  6

 40
0.0
 41
0.0
 42
0.0
 43
0.0
 44
0.0
 45
0.0
 46
0.0
 47
0.0
 48
0.0
 49
0.0
140
0.0
141
0.0
142
1.0
143
1.0
 70
   688
 72
     0
 73
     0
 74
     5
  7

 75
    16
 76
     0
 77
     2
 78
   300
147
1.0
148
0.0
149
0.0
100
AcDbLayout
  1
Layout2
 70
     1
 71
     2
 10
0.0
 20
0.0
 11
0.0
 21
0.0
 12
0.0
 22
0.0
 32
0.0
 14
0.0
 24
0.0
 34
0.0
 15
0.0
 25
0.0
 35
0.0
146
0.0
 13
0.0
 23
0.0
 33
0.0
 16
1.0
 26
0.0
 36
0.0
 17
0.0
 27
1.0
 37
0.0
 76
     0
330
23
  0
LAYOUT
  5
22
102
{ACAD_REACTORS
330
1A
102
}
330
1A
100
AcDbPlotSettings
  1

  2
none_device
  4

  6

 40
0.0
 41
0.0
 42
0.0
 43
0.0
 44
0.0
 45
0.0
 46
0.0
 47
0.0
 48
0.0
 49
0.0
140
0.0
141
0.0
142
1.0
143
1.0
 70
  1712
 72
     0
 73
     0
 74
     0
  7

 75
     0
 76
     0
 77
     2
 78
   300
147
1.0
148
0.0
149
0.0
100
AcDbLayout
  1
Model
 70
     1
 71
     0
 10
0.0
 20
0.0
 11
12.0
 21
9.0
 12
0.0
 22
0.0
 32
0.0
 14
1.000000000000000E+20
 24
1.000000000000000E+20
 34
1.000000000000000E+20
 15
-1.000000000000000E+20
 25
-1.000000000000000E+20
 35
-1.000000000000000E+20
146
0.0
 13
0.0
 23
0.0
 33
0.0
 16
1.0
 26
0.0
 36
0.0
 17
0.0
 27
1.0
 37
0.0
 76
     0
330
1F
331
29
  0
MLINESTYLE
  5
18
102
{ACAD_REACTORS
330
17
102
}
330
17
100
AcDbMlineStyle
  2
Standard
 70
     0
  3

 62
   256
 51
90.0
 52
90.0
 71
     2
 49
0.5
 62
   256
  6
BYLAYER
 49
-0.5
 62
   256
  6
BYLAYER
  0
ACDBPLACEHOLDER
  5
F
102
{ACAD_REACTORS
330
E
102
}
330
E
  0
VISUALSTYLE
  5
2F
102
{ACAD_REACTORS
330
2A
102
}
330
2A
100
AcDbVisualStyle
  2
2dWireframe
 70
     4
 71
     0
 72
     2
 73
     0
 90
        0
 40
-0.6
 41
-30.0
 62
     5
 63
     7
421
 16777215
 74
     1
 91
        4
 64
     7
 65
   257
 75
     1
175
     1
 42
1.0
 92
        0
 66
   257
 43
1.0
 76
     1
 77
     6
 78
     2
 67
     7
 79
     5
170
     0
171
     0
290
     0
174
     0
 93
        1
 44
0.0
173
     0
291
     0
 45
0.0
1001
ACAD
1000
AcDbSavedByObjectVersion
1070
     0
  0
VISUALSTYLE
  5
31
102
{ACAD_REACTORS
330
2A
102
}
330
2A
100
AcDbVisualStyle
  2
3D Hidden
 70
     6
 71
     1
 72
     2
 73
     2
 90
        0
 40
-0.6
 41
-30.0
 62
     5
 63
     7
421
 16777215
 74
     2
 91
        2
 64
     7
 65
   257
 75
     2
175
     1
 42
40.0
 92
        0
 66
   257
 43
1.0
 76
     1
 77
     6
 78
     2
 67
     7
 79
     3
170
     0
171
     0
290
     0
174
     0
 93
        1
 44
0.0
173
     0
291
     0
 45
0.0
1001
ACAD
1000
AcDbSavedByObjectVersion
1070
     0
  0
VISUALSTYLE
  5
30
102
{ACAD_REACTORS
330
2A
102
}
330
2A
100
AcDbVisualStyle
  2
3dWireframe
 70
     5
 71
     0
 72
     2
 73
     0
 90
        0
 40
-0.6
 41
-30.0
 62
     5
 63
     7
421
 16777215
 74
     1
 91
        4
 64
     7
 65
   257
 75
     1
175
     1
 42
1.0
 92
        0
 66
   257
 43
1.0
 76
     1
 77
     6
 78
     2
 67
     7
 79
     5
170
     0
171
     0
290
     0
174
     0
 93
        1
 44
0.0
173
     0
291
     0
 45
0.0
1001
ACAD
1000
AcDbSavedByObjectVersion
1070
     0
  0
VISUALSTYLE
  5
32
102
{ACAD_REACTORS
330
2A
102
}
330
2A
100
AcDbVisualStyle
  2
Basic
 70
     7
 71
     1
 72
     0
 73
     1
 90
        0
 40
-0.6
 41
-30.0
 62
     5
 63
     7
421
 16777215
 74
     0
 91
        4
 64
     7
 65
   257
 75
     1
175
     1
 42
1.0
 92
        8
 66
     7
 43
1.0
 76
     1
 77
     6
 78
     2
 67
     7
 79
     5
170
     0
171
     0
290
     0
174
     0
 93
        1
 44
0.0
173
     0
291
     1
 45
0.0
1001
ACAD
1000
AcDbSavedByObjectVersion
1070
     0
  0
VISUALSTYLE
  5
36
102
{ACAD_REACTORS
330
2A
102
}
330
2A
100
AcDbVisualStyle
  2
Brighten
 70
    12
 71
     2
 72
     2
 73
     0
 90
        0
 40
-0.6
 41
-30.0
 62
     5
 63
     7
421
 16777215
 74
     1
 91
        4
 64
     7
 65
   257
 75
     1
175
     1
 42
1.0
 92
        8
 66
     7
 43
1.0
 76
     1
 77
     6
 78
     2
 67
     7
 79
     5
170
     0
171
     0
290
     0
174
     0
 93
        1
 44
50.0
173
     0
291
     1
 45
0.0
1001
ACAD
1000
AcDbSavedByObjectVersion
1070
     0
  0
VISUALSTYLE
  5
3A
102
{ACAD_REACTORS
330
2A
102
}
330
2A
100
AcDbVisualStyle
  2
ColorChange
 70
    16
 71
     2
 72
     2
 73
     3
 90
        0
 40
-0.6
 41
-30.0
 62
     5
 63
     8
421
  8421504
 74
     1
 91
        4
 64
     7
 65
   257
 75
     1
175
     1
 42
1.0
 92
        8
 66
     8
424
  8421504
 43
1.0
 76
     1
 77
     6
 78
     2
 67
     7
 79
     5
170
     0
171
     0
290
     0
174
     0
 93
        1
 44
0.0
173
     0
291
     1
 45
0.0
1001
ACAD
1000
AcDbSavedByObjectVersion
1070
     0
  0
VISUALSTYLE
  5
34
102
{ACAD_REACTORS
330
2A
102
}
330
2A
100
AcDbVisualStyle
  2
Conceptual
 70
     9
 71
     3
 72
     2
 73
     0
 90
        0
 40
-0.6
 41
-30.0
 62
     5
 63
     7
421
 16777215
 74
     2
 91
        2
 64
     7
 65
   257
 75
     1
175
     1
 42
40.0
 92
        8
 66
     7
 43
1.0
 76
     1
 77
     6
 78
     2
 67
     7
 79
     3
170
     0
171
     0
290
     0
174
     0
 93
        1
 44
0.0
173
     0
291
     0
 45
0.0
1001
ACAD
1000
AcDbSavedByObjectVersion
1070
     0
  0
VISUALSTYLE
  5
35
102
{ACAD_REACTORS
330
2A
102
}
330
2A
100
AcDbVisualStyle
  2
Dim
 70
    11
 71
     2
 72
     2
 73
     0
 90
        0
 40
-0.6
 41
-30.0
 62
     5
 63
     7
421
 16777215
 74
     1
 91
        4
 64
     7
 65
   257
 75
     1
175
     1
 42
1.0
 92
        8
 66
     7
 43
1.0
 76
     1
 77
     6
 78
     2
 67
     7
 79
     5
170
     0
171
     0
290
     0
174
     0
 93
        1
 44
-50.0
173
     0
291
     1
 45
0.0
1001
ACAD
1000
AcDbSavedByObjectVersion
1070
     0
  0
VISUALSTYLE
  5
39
102
{ACAD_REACTORS
330
2A
102
}
330
2A
100
AcDbVisualStyle
  2
Facepattern
 70
    15
 71
     2
 72
     2
 73
     0
 90
        0
 40
-0.6
 41
-30.0
 62
     5
 63
     7
421
 16777215
 74
     1
 91
        4
 64
     7
 65
   257
 75
     1
175
     1
 42
1.0
 92
        8
 66
     7
 43
1.0
 76
     1
 77
     6
 78
     2
 67
     7
 79
     5
170
     0
171
     0
290
     0
174
     0
 93
        1
 44
0.0
173
     0
291
     1
 45
0.0
1001
ACAD
1000
AcDbSavedByObjectVersion
1070
     0
  0
VISUALSTYLE
  5
2B
102
{ACAD_REACTORS
330
2A
102
}
330
2A
100
AcDbVisualStyle
  2
Flat
 70
     0
 71
     2
 72
     1
 73
     1
 90
        2
 40
-0.6
 41
30.0
 62
     5
 63
     7
421
 16777215
 74
     0
 91
        4
 64
     7
 65
   257
 75
     1
175
     1
 42
1.0
 92
        8
 66
     7
 43
1.0
 76
     1
 77
     6
 78
     2
 67
     7
 79
     5
170
     0
171
     0
290
     0
174
     0
 93
       13
 44
0.0
173
     0
291
     1
 45
0.0
1001
ACAD
1000
AcDbSavedByObjectVersion
1070
     0
  0
VISUALSTYLE
  5
2C
102
{ACAD_REACTORS
330
2A
102
}
330
2A
100
AcDbVisualStyle
  2
FlatWithEdges
 70
     1
 71
     2
 72
     1
 73
     1
 90
        2
 40
-0.6
 41
30.0
 62
     5
 63
     7
421
 16777215
 74
     1
 91
        4
 64
     7
 65
   257
 75
     1
175
     1
 42
1.0
 92
        0
 66
   257
 43
1.0
 76
     1
 77
     6
 78
     2
 67
     7
 79
     5
170
     0
171
     0
290
     0
174
     0
 93
       13
 44
0.0
173
     0
291
     1
 45
0.0
1001
ACAD
1000
AcDbSavedByObjectVersion
1070
     0
  0
VISUALSTYLE
  5
2D
102
{ACAD_REACTORS
330
2A
102
}
330
2A
100
AcDbVisualStyle
  2
Gouraud
 70
     2
 71
     2
 72
     2
 73
     1
 90
        2
 40
-0.6
 41
30.0
 62
     5
 63
     7
421
 16777215
 74
     0
 91
        4
 64
     7
 65
   257
 75
     1
175
     1
 42
1.0
 92
        0
 66
     7
 43
1.0
 76
     1
 77
     6
 78
     2
 67
     7
 79
     5
170
     0
171
     0
290
     0
174
     0
 93
       13
 44
0.0
173
     0
291
     1
 45
0.0
1001
ACAD
1000
AcDbSavedByObjectVersion
1070
     0
  0
VISUALSTYLE
  5
2E
102
{ACAD_REACTORS
330
2A
102
}
330
2A
100
AcDbVisualStyle
  2
GouraudWithEdges
 70
     3
 71
     2
 72
     2
 73
     1
 90
        2
 40
-0.6
 41
30.0
 62
     5
 63
     7
421
 16777215
 74
     1
 91
        4
 64
     7
 65
   257
 75
     1
175
     1
 42
1.0
 92
        0
 66
   257
 43
1.0
 76
     1
 77
     6
 78
     2
 67
     7
 79
     5
170
     0
171
     0
290
     0
174
     0
 93
       13
 44
0.0
173
     0
291
     1
 45
0.0
1001
ACAD
1000
AcDbSavedByObjectVersion
1070
     0
  0
VISUALSTYLE
  5
38
102
{ACAD_REACTORS
330
2A
102
}
330
2A
100
AcDbVisualStyle
  2
Linepattern
 70
    14
 71
     2
 72
     2
 73
     0
 90
        0
 40
-0.6
 41
-30.0
 62
     5
 63
     7
421
 16777215
 74
     1
 91
        4
 64
     7
 65
   257
 75
     7
175
     7
 42
1.0
 92
        8
 66
     7
 43
1.0
 76
     1
 77
     6
 78
     2
 67
     7
 79
     5
170
     0
171
     0
290
     0
174
     0
 93
        1
 44
0.0
173
     0
291
     1
 45
0.0
1001
ACAD
1000
AcDbSavedByObjectVersion
1070
     0
  0
VISUALSTYLE
  5
33
102
{ACAD_REACTORS
330
2A
102
}
330
2A
100
AcDbVisualStyle
  2
Realistic
 70
     8
 71
     2
 72
     2
 73
     0
 90
        0
 40
-0.6
 41
-30.0
 62
     5
 63
     7
421
 16777215
 74
     1
 91
        0
 64
     7
 65
   257
 75
     1
175
     1
 42
1.0
 92
        8
 66
     8
424
  7895160
 43
1.0
 76
     1
 77
     6
 78
     2
 67
     7
 79
     5
170
     0
171
     0
290
     0
174
     0
 93
       13
 44
0.0
173
     0
291
     0
 45
0.0
1001
ACAD
1000
AcDbSavedByObjectVersion
1070
     0
  0
VISUALSTYLE
  5
37
102
{ACAD_REACTORS
330
2A
102
}
330
2A
100
AcDbVisualStyle
  2
Thicken
 70
    13
 71
     2
 72
     2
 73
     0
 90
        0
 40
-0.6
 41
-30.0
 62
     5
 63
     7
421
 16777215
 74
     1
 91
        4
 64
     7
 65
   257
 75
     1
175
     1
 42
1.0
 92
       12
 66
     7
 43
1.0
 76
     1
 77
     6
 78
     2
 67
     7
 79
     5
170
     0
171
     0
290
     0
174
     0
 93
        1
 44
0.0
173
     0
291
     1
 45
0.0
1001
ACAD
1000
AcDbSavedByObjectVersion
1070
     0
  0
ENDSEC
  0
EOF
